>
 >
Let It Rain 3

Let It Rain 3 Guitar Tabs

Eric Clapton - Let It Rain 3 chords, tabs, tablatures, lyrics

Guitar lessons | Add/correct | Request | Top 50 tabs Artists:  A B C D E F G H I J K L M N O P Q R S T U V W X Y Z 0-9

Let It Rain 3 Guitar Tabs – Eric Clapton

CD, Sheet music, Poster

Do you like Let It Rain 3? Share with your friends now
Bass TabsChordsChords v2TabsTabs v2Tabs v3Ukulele
Gtr IV
             |----3----|
   H      a  Q    Q    Q    a  Q.      E     +E   Q.
|------------------------|-------------------------------|
|------------------------|-------------------------------|
|----------------13---14-|-14s16------16b18r(16)-14------|
|--------14s16-----------|-------------------------------|
|------------------------|-------------------------------|
|------------------------|-------------------------------|
|
| Gtr II
|  W                           W
|-^2---------------------|----^2-------------------------|
|-^2--2------2-2---------|----^2--2----2------2---2----2-|
|-^2--2------2-2---------|----^2--2----2------2---2----2-|
|-^4--4------4-4---------|----^3--3----3------3---3----3-|
|------------------------|-------------------------------|
|------------------------|-------------------------------|
   Q  Q      E E    Q          E  E E  E      E   E  E E


                    ~~~~~~~
   +Q    E  E      +E   Q    +E     E   E      +E   E  H
|--------------------------------|-----------------------------|
|----------17b19==(17)-17r==(17)-|-14--------------------------|
|-(14)---------------------------|-----16pb18r(16)-14----------|
|--------------------------------|--------------------16-------|
|--------------------------------|-----------------------------|
|--------------------------------|-----------------------------|
|
|   W                               E   Q           E  E Q   E
|-^-2----------------------------|-^2--------------------------|
|-^-2--2-2--2-------2-----2------|-^2---2-----------2--2-2-----|
|-^-2--2-2--2-------2-----2------|-^2---2-----------2--2-2-----|
|-^-2--2-2--2-------2-----2------|-^1---1-----------1--1-1-----|
|--------------------------------|------------------4--2-1-2-0-|
|--------------------------------|-----------------------------|
    E  E E  E       Q     Q         Q.              E  E E E E


  W                Q    E  S  S  E   S  S  E  E    E  a  Q.     H
|---------------|-------------------------------|-----------------------|
|---------------|---------------12--15p12-------|-----------------------|
|---------------|------------12-----------14-12-|----14s16--------------|
|---------------|---------14--------------------|-14--------------------|
|---------------|-------------------------------|-----------------------|
|---------------|-------------------------------|-----------------------|
|
| Q  E E E Q  E   +E  Q    E    +E   Q.            Q        E E E Q  E
|----------0--2-|-(2)-0--------------0----------|-----------------0--2--|
|----3p0-3-0--2-|-(2)-0----3----(3)--0----------|-----------3p0-3-0--2--|
|----0---0----2-|-(2)------2----(2)-------------|-----------0---0----2--|
|----2---2----2-|-(2)------2----(2)-----------2-|-----------2---2----2--|
|---------------|-------------------------------|-----------------------|
|-0-------------|-------------------------------|--0--------------------|
  Q  Q   E Q  E   +E  Q    E    +E   Q        E    Q        Q   E Q  E


   E   S  S  E  E  E   E   S  S  E
|----------------------------------|
|-----12h15p12---------------------|
|-----12-------14-12------12s11----|
|---------------------14--------14-|
|----------------------------------|
|----------------------------------|
|
| +E   Q        E +E   Q.
|-(2)--0---------------0-----------|
|-(2)--0--------3-(3)--0-----------|
|-(2)-----------2-(2)--------------|
|-(2)-----------2-(2)------------2-|
|----------------------------------|
|----------------------------------|
  +E   Q        E +E   Q         E


                                                                                 E  Q.   
  +Q    Q      E   S  S  E  E  E   E   E  E
|-----------------------|--------------------------------||
|-----------------------|-----12h15p12-------------------||
|-14s16------(16)-------|--------------14-12------12h14--||
|-----------------------|---------------------14---------||
|-----------------------|--------------------------------||
|-----------------------|--------------------------------||
|
|  Q     E E   E  Q   E   +E   Q        E +E   Q.
|-----------------0---2-|-(2)--0---------------0---------||
|--------3p0---3--0---2-|-(2)--0--------3-(3)--0---------||
|--------0-----0------2-|-(2)-----------2-(2)------------||
|--------2-----2------2-|-(2)-----------2-(2)---------2--||
|-----------------------|--------------------------------||
|--0--------------------|--------------------------------||

2nd Guitar Solo

a  S  S  S  S  E  S  S  S  S  E  S  E    S    S  S  S  S  S  S  S  S  S  S  S  S  S  S  E
|-15h17-17-17-17-17-17-17-17-17-17-17-17---17-|-17-17-17-17-17-17-17-17-17-17-17-17-17-17-17-|
|---------------------------------------------|----------------------------------------------|
|---------------------------------------------|----------------------------------------------|
|---------------------------------------------|----------------------------------------------|
|---------------------------------------------|----------------------------------------------|
|---------------------------------------------|----------------------------------------------|


   S  S  S  S  S  S  S  S  S  S  S  S  S  S  S  S
|-17-17-17-17-17p15-15-15s14-14-14s12-12-12s10-10---|
|---------------------------------------------------|
|---------------------------------------------------|
|---------------------------------------------------|
|---------------------------------------------------|
|---------------------------------------------------|

   W                   Q    H           E  S      +S
|-------------------|------------------10-------------|
|-12b14-------------|------12b14----------12pb14r(12)p|
|-------------------|---------------------------------|
|-------------------|---------------------------------|
|-------------------|---------------------------------|
|-------------------|---------------------------------|


   H         E      +E   +E   E
|-------------------------------|
|-10--------12b14==(12)r(12)-10-|
|-------------------------------|
|-------------------------------|
|-------------------------------|
|-------------------------------|

   E  Q.        S  S  S  S  S  S  E      Q   H           E  S     +S
|-------------------------------------|-------------------------------|
|-------------------------------------|-----------------15------------|
|-12-14--------14-14-14-14-12h14-14---|-14--16b18----------16b18r(16)p|
|-------------------------------------|-------------------------------|
|-------------------------------------|-------------------------------|
|-------------------------------------|-------------------------------|

   H       Q   E   E      S  S  S  S  S  S  S  S  S  S  S  S  +S   S  S  S
|----------------------|-12----12----14p12----12-12h14-14-14-(14)-14-14-12-|
|----------------/14---|----14----14-------14------------------------------|
|-14-------------------|---------------------------------------------------|
|----------------------|---------------------------------------------------|
|----------------------|---------------------------------------------------|
|----------------------|---------------------------------------------------|


    H          +E   S  S  E    E      H        Q       Q
|-/17---------(17)-17h19p17--------|-19b21----19b21---19b21---|
|-----------------------------19---|--------------------------|
|----------------------------------|--------------------------|
|----------------------------------|--------------------------|
|----------------------------------|--------------------------|
|----------------------------------|--------------------------|


                                                                                ~~~~
   S     +S   E Q   Q   E  E          +H           S      +S   +E      E       +E
|-19b21r(19)p17-----------21b22====|=(21)r--------21pb22r(21)-(21)b22-21pb22==(21)-|
|----------------------------------|-----------------------------------------------|
|----------------------------------|-----------------------------------------------|
|----------------------------------|-----------------------------------------------|
|----------------------------------|-----------------------------------------------|
|----------------------------------|-----------------------------------------------|


    ~~~~~
   +Q.       S  S  S  S  S  S  S  S  S  S    S  S  S  S  S  S  S  S  S  S  S  S  S  S  S 
S
|-(21)r-----------17-------17-------17----|----17----------------17-19p17----19p17----19p17-|
|-----------17h19----17h19----17h19----17h|=19----17h19-20-17h19----------19-------19-------|
|-----------------------------------------|-------------------------------------------------|
|-----------------------------------------|-------------------------------------------------|
|-----------------------------------------|-------------------------------------------------|
|-----------------------------------------|-------------------------------------------------|


                                      |--3--|
   S  S  S  S  S  S  S  S     +E   E  S  S  S  E
|----19p17----19p17----19b21-(19)-19-17-19-17------|
|-19-------19-------19------------------------19---|
|--------------------------------------------------|
|--------------------------------------------------|
|--------------------------------------------------|
|--------------------------------------------------|


   ~~
   W                   a  E  a  E  Q      a  S  S  E    E.      S
|-17----------------|------------------------------------------------|
|-------------------|-17h19-17h19-17---------------------------------|
|-------------------|--------------------17p16-14------14------16b18-|
|-------------------|-----------------------------16-----------------|
|-------------------|------------------------------------------------|
|-------------------|------------------------------------------------|


            ~~~~
   +E   E  +H         S  S  S      +S     H.           Q
|--------------------17----------------|------------------------|
|------17-(17)----------17-------------|------------------------|
|-(16)---------------------16pb18r(16)-|-14---------------------|
|--------------------------------------|------------------------|
|--------------------------------------|------------------------|
|--------------------------------------|------------------------|


   S  S  S  S  S  S  S  S  S  S  S  S  S  S  S  S
|-------------------------------------------------|
|-------------------------------------------------|
|-------14-14-16p14----14-16p14----14-------------|
|-14h16-------------16----------16----16p14-------|
|-------------------------------------------16s14-|
|-------------------------------------------------|
|
|  W
|-------------------------------------------------|
|-------------------------------------------------|
|-------------------------------------------------|
|-------------------------------------------------|
|-------------------------------------------------|
|-------------------------------------------------|


   Q.      S  S  S  S  S  S  e         E      Q.       E   H
|------------------------------------------|-------------------------|
|------------------------------------------|-------------------------|
|---------------------------14b14.5--------|-14----------------------|
|---------------14-14----16-----------16---|----------16\------------|
|-12------14s16-------14-------------------|-------------------------|
|------------------------------------------|-------------------------|
|
|                                            Gtr V (Keyboard Solo)
|  W                                          W
|------------------------------------------|-------------------------|
|------------------------------------------|-------------------------|
|------------------------------------------|-14tr12------------------|
|------------------------------------------|-------------------------|
|------------------------------------------|-------------------------|
|------------------------------------------|-------------------------|


  Gtr V (Keyboard Solo)
   s  s  s  s  s  s  s  s  S  S  S  S  S  S  S  S
|-15-15-14-14-12-12-------------------------------|
|-------------------15-15-14-14-12-12-------------|
|-------------------------------------14-14-12-12-|
|-------------------------------------------------|
|-------------------------------------------------|
|-------------------------------------------------|

   W                       s  s  s  s  s  s  s  s  S  S  S  S  S  S  S  S
|-----------------------|-15-15-14-14-12-12-------------------------------|
|-----------------------|-------------------15-15-14-14-12-12-------------|
|-14tr12----------------|-------------------------------------14-14-12-12-|
|-----------------------|-------------------------------------------------|
|-----------------------|-------------------------------------------------|
|-----------------------|-------------------------------------------------|


   W                    s  s  s  s  s  s  s  s  S  S  S  S  S  S  S  S
|--------------------|-15-15-14-14-12-12-------------------------------|
|--------------------|-------------------15-15-14-14-12-12-------------|
|-14tr12-------------|-------------------------------------14-14-12-12-|
|--------------------|-------------------------------------------------|
|--------------------|-------------------------------------------------|
|--------------------|-------------------------------------------------|


                  <
   Q..         S  H
|-------------15-17tr15--------|
|------------------------------|
|-14tr12-----------------------|
|------------------------------|
|------------------------------|
|------------------------------|


   +E      E E S S  E     S  S  S  S  S  S
    |      | | | |  |     |  |  |  |  |  |
    /      / / / /  /     /  /  /  /  /  /

   +H               s  s  s  s  s  s  s  s
|-(17tr15)---------------------14-14-15-15-|
|------------------14-14-15-15-------------|
|------------------------------------------|
|------------------------------------------|
|------------------------------------------|
|------------------------------------------|

* You may have to bend to get there depening on how many frets you have
** or instead of |-22-21-19-17-,etc. just do this e|--------22\--|

   S  S  S  S  E E  T  T  T  T  T  T  T  T  T  T  T  T  T  T  T  T
|-*22-22-22-22-22---**22-21-19-17----------------------------------|
|-*24-24-24-24-24---------------20-19-17---------------------------|
|---------------------------------------19-18-16-------------------|
|------------------------------------------------19-17-16----------|
|---------------------------------------------------------19-17-16-|
|------------------------------------------------------------------|


  Gtr I
  H       E  a  E  E  E      Q      Q         Q       Q
|-----------------17-19---|-19b20--19b20-----19b20---19b20---|
|-----------17s19---------|----------------------------------|
|-------------------------|----------------------------------|
|-------------------------|----------------------------------|
|-------------------------|----------------------------------|
|-------------------------|----------------------------------|


   E     E     E     E       E     E       S  S  E      Q   Q    Q   E  E
|-19b20-19b20-19b20-19b20---19b20-19b20---19p17------|-17--------------19b20===|
|-----------------------------------------------19---|-----19\-----------------|
|----------------------------------------------------|-------------------------|
|----------------------------------------------------|-------------------------|
|----------------------------------------------------|-------------------------|
|----------------------------------------------------|-------------------------|

   +Q      S  S  E  E      +S   +S   +S   S  E
|-(19)r---19p17----19b20==(19)-(19)r(19)p17------|
|---------------19--------------------------19---|
|------------------------------------------------|
|------------------------------------------------|
|------------------------------------------------|
|------------------------------------------------|

   E.     +S   +S   S  E    E.       +S   +S   S  E    E      E  E  S  S  +S   S  S   S  
Q
|-19b20==(19)r(19)-17------19b20====(19)r(19)p17----|-19pb20----17----17-(17)-17----(17)-17---------|
|---------------------19-------------------------19-|--------19----19------------19-----------------|
|---------------------------------------------------|-----------------------------------------------|
|---------------------------------------------------|-----------------------------------------------|
|---------------------------------------------------|-----------------------------------------------|
|---------------------------------------------------|-----------------------------------------------|


   S  S  S  S  S  S  S  S  S  S  S  S  S  S  S  S    S  S  S  S  S  S  S  S  S  S  S  S  
 E  E
|-------17-17----17-------17-------17-------17----|----17-------17-------17------------------------|
|-17h19-------19----17h19----17h19----17h19----17h|=19----17h19----17h19----17h19----17------------|
|-------------------------------------------------|-------------------------------18----17p16-14---|
|-------------------------------------------------|------------------------------------------------|
|-------------------------------------------------|------------------------------------------------|
|-------------------------------------------------|------------------------------------------------|


   S  S  S  S  S  S  S      +S    S   S  +S   S  S  S  S  S
|-----------------------------------------------------------|
|--------------------------------17-------------------------|
|-------14-14-16-14-16b18==(16)-(16)-16r(16)-14-16p14----14-|
|-14h16-----------------------------------------------16----|
|-----------------------------------------------------------|
|-----------------------------------------------------------|


   S  E    S  S  S  S  S  S  S  S  S  S  S  S  S
|------------------------------------------------|
|------------------------------------------------|
|------------------------------------------------|
|-16p14---14-------------------------------14-14-|
|------------16s14-12-------12h14p12-14s16-------|
|---------------------12h14----------------------|

                                                          ~~~
   a  E  E  E  E  E  S  S  S  S  S  S       +S   S  S  S  H.
|----------------------------------------|-------------------------------|
|----------------------------------------|-------------------------------|
|-------14----------------14----14-16b17r|=(16)p14-------14--------------|
|-14h16-------------14h16----16----------|---------16p14-----------------|
|----------(0)---------------------------|-------------------------------|
|----------------------------------------|-------------------------------|


  W                   E  E  S  S  E    E  E    S     +S   E
|------------------|-------14---------------------------------|
|------------------|----------17p14------14-------------------|
|------------------|----16------------16------16b18r(16)p14---|
|------------------|------------------------------------------|
|------------------|------------------------------------------|
|------------------|------------------------------------------|

                     ~~~~
   Q        E   E   +H           E  S  S      +S   S  S  S  S  S  S  S  S  S  S  S
|-----------------------------|------------------------------------------------------|
|----------17-----------------|----17------------------------------------------------|
|-16b18===(16)-16r-(16)-------|-------16pb18r(16)p14-------14------------------------|
|-----------------------------|----------------------16p14----14h15-14---------------|
|-----------------------------|----------------------------------------16s14-12------|
|-----------------------------|-------------------------------------------------14---|


   a  E  E  +H.                E  E      +S    E    S  S     +S   S  S     +S   S  S     +S
|---------------------------|----------------------------------------------------------------|
|---------------------------|-----------------17---17------------17------------17------------|
|---------------------------|----16b18==(16)r---------16b18-(16)----16b18-(16)----16b18-(16)-|
|-------14-(14)-------------|----------------------------------------------------------------|
|-14s16---------------------|----------------------------------------------------------------|
|---------------------------|----------------------------------------------------------------|


   S  S     +S   S  S     +S   S  S     +S   S  S     +S   S  S     +S   S
|---------------------------------------------------------------------------|
|-17------------17------------17------------17------------17------------17--|
|----16b18-(16)----16b18-(16)----16b18-(16)----16b18-(16)----16b18-(16)-----|
|---------------------------------------------------------------------------|
|---------------------------------------------------------------------------|
|---------------------------------------------------------------------------|


   S      +S    S   S  +S   S  S  S  S  S  S  S  S  S  S  S
|-----------------------------------------------------------|
|--------------17-------------------------------------------|
|-16b18==(16)-(16)-16r(16)p14-------14-------14-------14----|
|-----------------------------16p14----16p14----16p14----14h|
|-----------------------------------------------------------|
|-----------------------------------------------------------|


   S  S  S  S  S  S  S      +S    S   S   S  S  S  S  S  S    E  E  E   S  S  S  S  S  S 
+S   S  S  S
|--------------------------------14------------------------|----------------------------------------------|
|----------------------------------------17-14----14-------|----------------------------------------------|
|----14h16p14-------16b18==(16)-(16)-16r-------16----16p14-|----14-14-----------14------------------------|
|-16----------14h16----------------------------------------|-16-------/14-14-16----16-14-(14)-14----------|
|----------------------------------------------------------|-------------------------------------16s14----|
|----------------------------------------------------------|----------------------------------------------|

   Q  Q   Q   E  E        +H         +Q     S  S  E
|----------------------|------------------------------|
|---------------12b13==|=(12)r======(12)---10h12p10---|
|----------------------|------------------------------|
|----------------------|------------------------------|
|-12-------------------|------------------------------|
|----------------------|------------------------------|


   +H         Q   E.    S
|----------------------21pb22==|
|-(10)-------------------------|
|------------------------------|
|------------------------------|
|------------------------------|
|------------------------------|

Outro
   +W
|-(21)r-----------------------|
|-----------------------------|
|-----------------------------|
|-----------------------------|
|-----------------------------|
|-----------------------------|
|
| Gtr II
|   Q.      E   E S S +S  S E
|-----------------------------|
|-----------0h==2---0-(0)---2-|
|--(4)------2h4---0-------2-2-|
|--(5)--------------------2---|
|-----------------------------|
|-----------------------------|
    Q     E S S E S S +S  S E


    Q  Q  E E   Q         H           E  Q   E
    |  |  | |   |                        |   |
    /  /  / /   /                        o   x

    W                     Q    a E E +H
|-----------------------|-------------------------|
|-----------------------|----------5-(5)----------|
|-----------------------|------4s6----------------|
|-----------------------|-------------------------|
|-----------------------|-------------------------|
|-----------------------|-------------------------|
|
| a Q  Q  E E   E   E     E Q.       +Q    Q
|-------------------3---|------------------3------|
|-3s5--5--5s3---5-2-----|-0-3--------(3)----------|
|-4s6-----6---2h4-----2-|---2--4s6---------2h==4--|
|-----------------------|-------------------------|
|-----------------------|-------------------------|
|-----------------------|-------------------------|
  a H     E S S S E   S   E E  a H         E.  S


           |----3-----|
   E  E    E     E    E    Q           Q
|-------------------------11b12-------11b12-------|
|-10-10---10----10---10---------------------------|
|-------------------------------------------------|
|-------------------------------------------------|
|-------------------------------------------------|
|-------------------------------------------------|
|
| Gtr II
|  Q       E       E       E      Q           S S
|--3-------3-------2--------------5---------------|
|--2----0-(0)--------------3------------------0h2-|
|-----0------------2----4s=6----------------------|
|-------------3-----------------------------------|
|-------------------------------------------------|
|-------------------------------------------------|
|  E  S S +S  S    E    a  H
|
| Gtr III
|  H                       S    S S S  S    S S S
|-------------------------10----5-7p5--5----5h7-5-|
|-------------------------------------------------|
|-------------------------------------------------|
|-------------------------------------------------|
|-------------------------------------------------|
|-------------------------------------------------|


                                                 Q=100
  Q          e    E    Q        E     a  S   S    S   S  a  S  S  S E. H
|----------------------------------------------:----------------------------------*|
|----------------------------------------------:----------------------------------*|
|-9----------9------------------------------14-:-16--14---------------------------*|
|------------------------------------14s16-----:--------16s14-12h14---------------*|
|----------------------------------------------:----------------------------------*|
|----------------------------------------------:----------------------------------*|
|
|                                                                            PM
| E     S S +E    E    E   S S +S  S     E       +W
|-0-------0-(0)--------------------------------:----------------------------------*|
|-------0---------2h==(2)----3-(3)-------2-----:-(2)------------------------------*|
|-----------------0---(0)--4-------2----(2)----:-(0)------------------------------*|
|-----------------2---(2)----------------------:-(2)------------------------------*|
|-----------------0---(0)----------------------:-(0)------------------------(0)---*|
|----------------------------------------------:----------------------------------*|
| Q          E    E   +H                          H                    Q  E  E
|
| S S a S S  S  S S S  S S E    Q                 W
|----------------------------------------------:----------------------------------*|
|-7-5-----5------------------------------------:----------------------------------*|
|-----6s4----4--2------------------------------:--2-------------------------------*|
|-----------------4p2--------------------------:--2-------------------------------*|
|----------------------4p2p0----4--------------:----------------------------------*|
|----------------------------------------------:----------------------------------*|





Comments


Popular Eric Clapton tabs & chords
San Francisco Bay Blues Bass Tabs
Mean Old Frisco Chords
Knocking On Heavens Door Drum Tabs
Got To Get Better In A Little While Live Intro Tabs
I'm Tore Down 1 Tabs
Mean Old World 1 Tabs
Walkin Blues Tabs
Wonderful Tonight 5 Tabs
Help Me Up Ukulele
Revolution Ukulele


Song lyrics



↑ Back to top | Tablatures and chords are parodies/interpretations of the original songs. You may use it for private study, scholarship, research or language learning purposes only
© 2014 AZChords.com Contact us | Privacy policy | DMCA | Add/correct tabs | Request tabs | Top 50 tabs