» » »

Sunshine Of Your Love Tabs (ver.4)

Artists:  A B C D E F G H I J K L M N O P Q R S T U V W X Y Z # 

Sunshine Of Your Love Tabs (ver.4)

Eric Clapton
Rating:
0/5 (0 votes)
Tabs too difficult? Try these video lessons and learn fast.
                -----------------------------------------------------------------------------
                     *Eric Clapton - Sunshine of Your Love*
-----------------------------------------------------------------------------



Tuning: Standard 




pretty sure im 90% right
have fun :]


E||---------------------------------------------------------------|
B||-----------8/10---10---8----10---------------------------------|
G||-----------9/11---11---9----11---------------------------------|
D||----------10/12---12---10---12---------------------------------|
A||---------------------------------10/12--11---10--------8v------|
E||-------------------------------------------------8/10-----10---|


------------------------------------------------------------------|
-----10---10---8----10--------------------------------------------|
-----11---11---9----11---------------------10--10v--10------------|
-----12---12---10---12---------------------12-------12------------|
-------------------------10/12---11---10---12-------12------------|
------------------------------------------------------------------|


------------------------------------------------------------------|
-----10---10---8----10--------------------------------------------|
-----11---11---9----11--------------------------------------------|  x4
-----12---12---10---12--------------------------------------------|
--------------------------10/12--11---10--------8v----------------|
------------------------------------------8/10------10------------|



------------------------------------------------------------------|
-----3---3---1---3------------------------------------------------|
-----4---4---2---4------------------------------------------------|  x2
-----5---5---3---5------------------------------------------------|
---------------------3/5---4---3---------1v-----------------------|
-----------------------------------1/3--------3-------------------|



------------------------------------------------------------------|
-----10---10---8----10--------------------------------------------|
-----11---11---9----11--------------------------------------------|  x2
-----12---12---10---12--------------------------------------------|
--------------------------10/12--11---10--------8v----------------|
------------------------------------------8/10------10------------|


    A
-------------x-x---x--x---|
----2-222----x-x---3--3---|
----2-222----x-x---4--4---|   x2
----2-222----5-5---5--5---|
-------------3-3---x--x---|
-------------x-x---3--3---|


     A
------------x-x---x-x----------------------|
----2-222---x-x---3-3---2-2-2-2-2-2-222222-|
----2-222---x-x---4-4---2-2-2-2-2-2-222222-|
----2-222---5-5---5-5---2-2-2-2-2-2-222222-|
------------3-3---x-x----------------------|
------------x-x---3-3----------------------|



------------------------------------------------------------------|
-----10---10---8----10--------------------------------------------|
-----11---11---9----11--------------------------------------------|  x6
-----12---12---10---12--------------------------------------------|
--------------------------10/12--11---10--------8v----------------|
------------------------------------------8/10------10------------|



------------------------------------------------------------------|
-----3---3---1---3------------------------------------------------|
-----4---4---2---4------------------------------------------------|  x2
-----5---5---3---5------------------------------------------------|
---------------------3/5---4---3---------1v-----------------------|
-----------------------------------1/3--------3-------------------|



------------------------------------------------------------------|
-----10---10---8----10--------------------------------------------|
-----11---11---9----11--------------------------------------------|  x2
-----12---12---10---12--------------------------------------------|
--------------------------10/12--11---10--------8v----------------|
------------------------------------------8/10------10------------|



    A
-------------x-x---x--x---|
----2-222----x-x---3--3---|
----2-222----x-x---4--4---|   x2
----2-222----5-5---5--5---|
-------------3-3---x--x---|
-------------x-x---3--3---|



     A
------------x-x---x-x----------------------|
----2-222---x-x---3-3---2-2-2-2-2-2-222222-|
----2-222---x-x---4-4---2-2-2-2-2-2-222222-|
----2-222---5-5---5-5---2-2-2-2-2-2-222222-|
------------3-3---x-x----------------------|
------------x-x---3-3----------------------|



                                                     D
-----------------------------------------------------2-------------||
-----10---10---8----10-------------------------------3-------------||
-----11---11---9----11-------------------------------2-------------|| 
-----12---12---10---12------------------------10-----0-------------||
--------------------------10/12--11---10-------8-----x-------------||
------------------------------------------10---------x-------------||


V - Vibrate
/ - Slide up
x - mute
            
Tabs too difficult? Try these video lessons and learn fast.


comments powered by Disqus
↑ Back to top | Tablatures and chords are parodies/interpretations of the original songs. You may use it for private study, scholarship, research or language learning purposes only