» » »

Helicopters Bass tabs (ver.1)

Artists:  A B C D E F G H I J K L M N O P Q R S T U V W X Y Z # 

Helicopters Bass tabs (ver.1)

Falling Up
Rating:
0/5 (0 votes)

Tabs too difficult? Try these video lessons and learn fast.
                -------------------------------------------------------------------------------
-------------------------------------------------------------------------------


Tuning: Standard

Verse - 0:27 *Those are 12's and 10's*
G|---------------------------------------------------------------------------|
D|-12121210101088855353-12121210101088855353---------------------------------|
A|---------------------------------------------------------------------------|
E|---------------------------------------------------------------------------|

Verse - 0:34 *Those are 12's and 10's*
G|---------------------------------------------------------------------------|
D|-12121210101088855353-12121210101088855353---------------------------------|
A|---------------------------------------------------------------------------|
E|---------------------------------------------------------------------------|

Verse - 0:40 "You covered a..." *Those are 12's and 10's*
G|---------------------------------------------------------------------------|
D|-12121210101088855353-12121210101088855353---------------------------------|
A|---------------------------------------------------------------------------|
E|---------------------------------------------------------------------------|

Verse - 0:47 "Now drink to..." *Those are 12's and 10's*
G|---------------------------------------------------------------------------|
D|-12121210101088855353-12121210101088855353---------------------------------|
A|---------------------------------------------------------------------------|
E|---------------------------------------------------------------------------|

Pre-Chorus - 0:54 "Ticking like a..." *Those are 11's*
G|---------------------------------------------------------------------------|
D|---------------------------------------------------------------------------|
A|-9-9-9-9-9-9-9-9-11-11-11-11-11-11-11-11-----------------------------------|
E|---------------------------------------------------------------------------|

Pre-Chorus - 1:02 *Those are 11's*
G|---------------------------------------------------------------------------|
D|-----------------11-11-11-11-----------------------------------------------|
A|-9-9-9-9-9-9-9-9-------------11-11-11-11-----------------------------------|
E|---------------------------------------------------------------------------|

Chorus - 1:09 "I landed here..." *Those are 11's*
G|----------------------------------9988991111-------------------------------|
D|-7777777777777777-1111111111111111-----------------------------------------|
A|---------------------------------------------------------------------------|
E|---------------------------------------------------------------------------|

Chorus - 1:17 "I landed here..." *Those are 11's*
G|----------------------------------6688111199-------------------------------|
D|-7777777777777777-1111111111111111-----------------------------------------|
A|---------------------------------------------------------------------------|
E|---------------------------------------------------------------------------|

Chorus - 1:25 "I never felt..." *Those are 11's*
G|----------------------------------88998866---------------------------------|
D|-7777777777777777-1111111111111111-----------------------------------------|
A|---------------------------------------------------------------------------|
E|---------------------------------------------------------------------------|

Verse - 1:46 "Await for an..." *Those are 12's and 10's*
G|---------------------------------------------------------------------------|
D|-12121210101088855353-12121210101088855353---------------------------------|
A|---------------------------------------------------------------------------|
E|---------------------------------------------------------------------------|

Verse - 1:53 "But notice my..." *Those are 12's and 10's*
G|---------------------------------------------------------------------------|
D|-12121210101088855353-12121210101088855353---------------------------------|
A|---------------------------------------------------------------------------|
E|---------------------------------------------------------------------------|

Pre-Chorus - 1:59 "Dimming till the..." *Those are 11's*
G|---------------------------------------------------------------------------|
D|---------------------------------------------------------------------------|
A|-9-9-9-9-9-9-9-9-11-11-11-11-11-11-11-11-----------------------------------|
E|---------------------------------------------------------------------------|

Pre-Chorus - 2:07 *Those are 11's*
G|---------------------------------------------------------------------------|
D|-----------------11-11-11-11-----------------------------------------------|
A|-9-9-9-9-9-9-9-9-------------11-11-11-11-----------------------------------|
E|---------------------------------------------------------------------------|

Chorus - 2:15 "I landed here..." *Those are 11's*
G|----------------------------------8899111199-------------------------------|
D|-7777777777777777-1111111111111111-----------------------------------------|
A|---------------------------------------------------------------------------|
E|---------------------------------------------------------------------------|

Chorus - 2:22 "I landed here..." *Those are 11's*
G|----------------------------------8899111199-------------------------------|
D|-7777777777777777-1111111111111111-----------------------------------------|
A|---------------------------------------------------------------------------|
E|---------------------------------------------------------------------------|

Chorus - 2:30 "I landed here..." *Those are 11's*
G|----------------------------------8899111199-------------------------------|
D|-7777777777777777-1111111111111111-----------------------------------------|
A|---------------------------------------------------------------------------|
E|---------------------------------------------------------------------------|

Chorus - 2:38 "I never felt..." *Those are 11's*
G|----------------------------------1111998866-------------------------------|
D|-7777777777777777-1111111111111111-----------------------------------------|
A|---------------------------------------------------------------------------|
E|---------------------------------------------------------------------------|

Break - 3:04
G|---------------------------------------------------------------------------|
D|---------------------------------------------------------------------------|
A|---------------------------------------------------------------------------|
E|-4444444444444444----------------------------------------------------------|

Chorus - 3:09 "I landed here..." *Those are 11's*
G|----------------------------------8811119988-------------------------------|
D|-7777777777777777-1111111111111111-----------------------------------------|
A|---------------------------------------------------------------------------|
E|---------------------------------------------------------------------------|

Chorus - 3:17 "I landed here..." *Those are 11's*
G|----------------------------------111199111199-----------------------------|
D|-7777777777777777-1111111111111111-----------------------------------------|
A|---------------------------------------------------------------------------|
E|---------------------------------------------------------------------------|

Chorus - 3:25 "I landed here..." *Those are 11's*
G|----------------------------------8899111199-------------------------------|
D|-7777777777777777-1111111111111111-----------------------------------------|
A|---------------------------------------------------------------------------|
E|---------------------------------------------------------------------------|

Chorus - 3:33 "I never felt..." *Those are 11's*
G|---------------------------------------------------------------------------|
D|-7777777777777777-1111111111111111111111111111111111~----------------------|
A|---------------------------------------------------------------------------|
E|---------------------------------------------------------------------------|


| /  slide up
| \  slide down
| h  hammer-on
| p  pull-off
| ~  vibrato
| +  harmonic
| x  Mute note
===============================================================================
            
Tabs too difficult? Try these video lessons and learn fast.


comments powered by Disqus
↑ Back to top | Tablatures and chords are parodies/interpretations of the original songs. You may use it for private study, scholarship, research or language learning purposes only