» » »

Joining The Circus Bass tabs (ver.1)

Artists:  A B C D E F G H I J K L M N O P Q R S T U V W X Y Z # 

Joining The Circus Bass tabs (ver.1)

Far
Rating:
5/5 (1 vote)

Tabs too difficult? Try these video lessons and learn fast.
                G|------------------------------------------------------------------|
D|------------------------------------------------------------------|
A|------------------------------------------------------------------|
D|-0-0-0-0-0-0-0-0-3-3-3-3-3-3-3-3-0-0-0-0-0-0-0-0-3-3-3-3-3-3-3-3--|
(repeat)

Never won a medal for bravery...
G|------------------------------------------------------------------|
D|------------------------------------------------------------------|
A|------------------------------------------------------------------|
D|-0-0-0-0-0-0-0-0-3-3-3-3-3-3-3-3-5-5-5-5-5-5-5-5-1-1-1-1-1-1-1-1--|

Never won a medal for talent...
G|------------------------------------------------------------------|
D|------------------------------------------------------------------|
A|------------------------------------------------------------------|
D|-0-0-0-0-0-0-0-0-5-5-5-5-5-5-5-5-8-8-8-8-8-8-8-8-1-1-1-1-1-1-1-1--|

Never thought the truth would explain me...
G|------------------------------------------------------------------|
D|------------------------------------------------------------------|
A|------------------------------------------------------------------|
D|-0-0-0-0-0-0-0-0-3-3-3-3-3-3-3-3-5-5-5-5-5-5-5-5-1-1-1-1-1-1-1-1--|

Turned me into something too close to a liar...
G|------------------------------------------------------------------|
D|------------------------------------------------------------------|
A|------------------------------------------------------------------|
D|-0-0-0-0-0-0-0-0-5-5-5-5-5-5-5-5-8-8-8-8-8-8-8-8-1-1-1-1-1-1-1-1--|

I'm joining the circus...
G|------------------------------------------------------------------|
D|------------------------------------------------------------------|
A|---------------------------------------------9--------------------|
D|-0---3-5-3-0-2---0-2-3-2---0---3-5-3-5-7----7-7-------------------|

Waving from the boat...
G|------------------------------------------------------------------|
D|------------------------------------------------------------------|
A|------------------------------------------------------------------|
D|-0---3-5-3-0-2---0-2-3-2---7---3---7------------------------------|

I will arrange...
G|------------------------------------------------------------------|
D|------------------------------------------------------------------|
A|------------------------------------------------------------------|
D|-0-0-0-0-0-0-0-0-3-3-3-3-3-3-3-3-0-0-0-0-0-0-0-0-3-3-3-3-3-3-3-3--|
(repeat)

I'm joining the circus...
G|------------------------------------------------------------------|
D|------------------------------------------------------------------|
A|---------------------------------------------9--------------------|
D|-0---3-5-3-0-2---0-2-3-2---0---3-5-3-5-7----7-7-------------------|

The people I won't know...
G|------------------------------------------------------------------|
D|------------------------------------------------------------------|
A|------------------------------------------------------------------|
D|-0---3-5-3-0-2---0-2-3-2---7---3---7------7\-----------------0----|

Now where is the circus...
G|------------------------------------------------------------------|
D|------------------------------------------------------------------|
A|---------------------------------------------9--------------------|
D|-0---3-5-3-0-2---0-2-3-2---0---3-5-3-5-7----7-7-------------------|

Half-naked girls and mirrors...
G|------------------------------------------------------------------|
D|------------------------------------------------------------------|
A|------------------------------------------------------------------|
D|-0---3-5-3-0-2---0-2-3-2---7---3---7------7\--0-------------------|

I love her now...
G|------------------------------------------------------------------|
D|------------------------------------------------------------------|
A|------------------------------------------------------------------|
D|-0-0-11-11-0-0-11-11----------------------------------------------|
(repeat)

G|------------------------------------------------------------------|
D|------------------------------------------------------------------|
A|------------------------------------------------------------------|
D|-0-0-0-0-0-0-0-0-3-3-3-3-3-3-3-3-0-0-0-0-0-0-0-0-3-3-3-3-3-3-3-3--|
(repeat until end, ending on an open D)
            
Tabs too difficult? Try these video lessons and learn fast.




comments powered by Disqus
↑ Back to top | Tablatures and chords are parodies/interpretations of the original songs. You may use it for private study, scholarship, research or language learning purposes only