» » »

No Room For Emotion Bass tabs (ver.1)

Artists:  A B C D E F G H I J K L M N O P Q R S T U V W X Y Z # 

No Room For Emotion Bass tabs (ver.1)

Faster Pussycat
Rating:
0/5 (0 votes)
Tabs too difficult? Try these video lessons and learn fast.
                ---------------------------------------------------------------------------------
                             No Room For Emotion - Faster Pussycat
---------------------------------------------------------------------------------



Tuning: Standard

Intro
G|-----------------------------------------------------------------------|
D|-----------------------------------------------------------------------|
A|--0-2-4-5------------------------0-2-4-5---5---------5---5---------5---|
E|-----------------------------------------------3-5-----------3-5-------|

G|---------------------------------------------------------------------------|
D|---------------------------------------------------------------------------|
A|--5-5-5-5-5-----------5----5-5-5-5-5------------5---5-5-5-5-5-5-5-5-5-5-5--|
E|--------------3---5--------------------3---5-------------------------------|

Verse 1
G|--------------------------------------------------------------------------------|
D|o-------------------------------------------------------------------------------|
A|o--0-2-4-5---5---------5---5---------5---5-5-5-5-5-5-----------5---5-5-5-5-5-5--|
E|-----------------3-5-----------3-5---------------------3---5--------------------|

                            Play 1st time only
G|-------------------------|------------------|---------------------|
D|-------------------------|-----------------o|--/7-5-4-------------|
A|----------5---5-5-5-5-5--|--5-5-5-5-5-5-5--o|---------7-5---------|
E|--3---5------------------|------------------|-------------8-7-5---|

Chorus
G|------------------------------------------------------|
D|o----------------------------------------------------o|
A|o----------------------0-2-4-5-5-3---3---5-5-3---3---o|
E|---3---3-0-2-3-5-5-5-5-------------5-----------5------|

G|--------------------------------------------------------------------|
D|------------------------------------------------------4-7-4---------|
A|----------------------4-5-7-5---------------------4-7-------7-4-----|
E|--3---3-0-2-3-5-5-5-5-------------5-5-5-5-5-5-5-5---------------5---|

Verse 2
G|--------------------------------------------------------------------------|
D|o-------------------------------------------------------------------------|
A|o--5---5---------5---5---------5---5-5-5-5-5-5-----------5---5-5-5-5-5-5--|
E|-----------3-5-----------3-5---------------------3---5--------------------|

                            Play 1st time only
G|-------------------------|------------------------|---------------------|
D|-------------------------|-----------------------o|--/7-5-4-------------|
A|----------5---5-5-5-5-5--|--5-5-5-5-5-5-5-0-2-4--o|---------7-5---------|
E|--3---5------------------|------------------------|-------------8-7-5---|

Chorus
G|------------------------------------------------------|
D|o----------------------------------------------------o|
A|o----------------------0-2-4-5-5-3---3---5-5-3---3---o|
E|---3---3-0-2-3-5-5-5-5-------------5-----------5------|

G|--------------------------------------------------------------------|
D|------------------------------------------------------4-7-4---------|
A|----------------------4-5-7-5---------------------4-7-------7-4-----|
E|--3---3-0-2-3-5-5-5-5-------------5-5-5-5-5-5-5-5---------------5---|

Guitar Solo
G|--------------------------------------------------------------------------|
D|o-------------------------------------------------------------------------|
A|o--5---5---------5---5---------5---5-5-5-5-5-5-----------5---5-5-5-5-5-5--|
E|-----------3-5-----------3-5---------------------3---5--------------------|

                            Play 1st time only
G|-------------------------|------------------------|---------------------|
D|-------------------------|-----------------------o|--/7-5-4-------------|
A|----------5---5-5-5-5-5--|--5-5-5-5-5-5-5-0-2-4--o|---------7-5---------|
E|--3---5------------------|------------------------|-------------8-7-5---|

Outro                                   Repeat until end
G|------------------------------------------------------|
D|o----------------------------------------------------o|
A|o----------------------0-2-4-5-5-3---3---5-5-3---3---o|
E|---3---3-0-2-3-5-5-5-5-------------5-----------5------|



| /  slide up
| \  slide down
| h  hammer-on
| p  pull-off
| ~  vibrato
| +  harmonic
| x  Mute note
===============================================================================

Please rate or comment.........
            
Tabs too difficult? Try these video lessons and learn fast.


comments powered by Disqus
↑ Back to top | Tablatures and chords are parodies/interpretations of the original songs. You may use it for private study, scholarship, research or language learning purposes only