» » »

On The Bright Side, (She Could Choke) Tabs (ver.1)

Artists:  A B C D E F G H I J K L M N O P Q R S T U V W X Y Z # 

On The Bright Side, (She Could Choke) Tabs (ver.1)

Fear Before The March Of Flames
Rating:
0/5 (0 votes)

Tabs too difficult? Try these video lessons and learn fast.
                has one guitarist and the other tab for this song on her completly sucks but this one is
pretty close except its kind of hard to figure out the rhythem part but you just have to
listen to the song

(sorry if there is gaps between the strings i dont know why it did that)


E----0---0----0----0--------------------------------------------------------|
B----0---0----0----0--------------------------------------------------------|
G--9---9----9----9---10--9--12--9--10--9--12--9-----------------------------|
D-10--10---10---10---10-10--10-10--10-10--10-10---x2------------------------|
A---------------------------------------------------------------------------|
D---------------------------------------------------------------------------|

E-------------------------------------------------------------------------------|
B--0000000000000000--0-0-0-0-0-0-0-0-00000000--0-0-0-0-0-0-0-0-0-0-0-0-0-0-0-0--|
G--9999999999999999-1010101010101010-99999999-12121212121212121212121212121212--|
D-------------------------------------------------------------------------------|
A-------------------------------------------------------------------------------|
D-------------------------------------------------------------------------------|


E------------------------------------------------------------------------------|
B--0-0-0-0-0-0-0-0--0--0--0--0-------------------------------------------------|
G-1212121212121212-12-12-12-12-------------------------------------------------|
D------------------------------------------------------------------------------|
A------------------------------------------------------------------------------|
D------------------------------------------------------------------------------|


E------------------------------------------------------------------------------|
B-----------------------------------------0-0-0000--0-0-0-0-0000--0-0-0-0------|
G-12-10-9-12-10-9-12-10-9-12-10-9-12-10-9-9-9-9999-10101010-9999-10101010------|
D------------------------------------------------------------------------------|
A------------------------------------------------------------------------------|
D------------------------------------------------------------------------------|


E------------------------------------------------------------------------------|
B-0000--0-0-0-0-0--------------------------------------------------------------|
G-9999-10101010-9--------------------------------------------------------------|
D------------------------------------------------------------------------------|
A------------------------------------------------------------------------------|
D------------------------------------------------------------------------------|


E------------------------------------------------------------------------------|
B-00000000000000000000000000000000-----0-0-0-0-0-0-0-0-0-0-0-0-0-0-0-0---------|
G-99999999999999999999999999999999----12121212121212121212121212121212---------|
D------------------------------------------------------------------------------|
A------------------------------------------------------------------------------|
D------------------------------------------------------------------------------|


E------------------------------------------------------------------------------|
B--0-0-0-0-0-0-0-0--0--0--0--0---0-0-0-0-0-0-0-0-0-0-0-0-0-0-0-0---------------|
G-1212121212121212-12-12-12-12--10101010101010101010101010101010---------------|
D------------------------------------------------------------------------------|
A------------------------------------------------------------------------------|
D------------------------------------------------------------------------------|


E------------------------------------------------------------------------------|
B--0-0-0-0-0-0-0-0--0--0--0--0---0-0-0000--0-0-0-0-0-0000--0-0-0-0-------------|
G-1010101010101010-10-10-10-10---9-9-9999-1010101010-9999-10101010-------------|
D------------------------------------------------------------------------------|
A------------------------------------------------------------------------------|
D------------------------------------------------------------------------------|


E----------------------0----0----0----0--0-------------------------------------|
B-0000--0-0-0-0-0------0----0----0----0--0-------------------------------------|
G-9999-10101010-9----9----9----9----9----9----10--9--12--9--10--9--12--9----10-|
D-------------------10---10---10---10---10----10-10--10-10--10-10--10-10----10-|
A------------------------------------------------------------------------------|
D------------------------------------------------------------------------------|


E------------------------------------------------------------------------------|
B------------0000000000000000--0-0-0-0-0-0-0-0-00000000--0-0-0-0-0-0-0-0-------|
G-12-10-9-10-9999999999999999-1010101010101010-99999999-1212121212121212-------|
D------------------------------------------------------------------------------|
A------------------------------------------------------------------------------|
D------------------------------------------------------------------------------|


E------------------------------------------------------------------------------|
B--0-0-0-0-0-0-0-0-0-0-0-0-0-0-0-0--0--0--0--0---------------------------------|
G-12121212121212121212121212121212-12-12-12-12---------------------------------|
D------------------------------------------------------------------------------|
A------------------------------------------------------------------------------|
D------------------------------------------------------------------------------|


E------------------------------------------------------------------------------|
B-----------------------------------------0-0-0000--0-0-0-0-0000--0-0-0-0------|
G-12-10-9-12-10-9-12-10-9-12-10-9-12-10-9-9-9-9999-10101010-9999-10101010------|
D------------------------------------------------------------------------------|
A------------------------------------------------------------------------------|
D------------------------------------------------------------------------------|


E------------------------------------------------------------------------------|
B-0000--0-0-0-0-0--00000000000000000000000000000000----------------------------|
G-9999-10101010-9--99999999999999999999999999999999----------------------------|
D------------------------------------------------------------------------------|
A------------------------------------------------------------------------------|
D------------------------------------------------------------------------------|


E------------------------------------------------------------------------------|
B--0-0-0-0-0-0-0-0-0-0-0-0-0-0-0-0-0-0-0-0-0-0-0-0--0--0--0--0-----------------|
G-121212121212121212121212121212121212121212121212-12-12-12-12-----------------|
D------------------------------------------------------------------------------|
A------------------------------------------------------------------------------|
D------------------------------------------------------------------------------|


E------------------------------------------------------------------------------|
B--0-0-0-0-0-0-0-0-0-0-0-0-0-0-0-0-0-0-0-0-0-0-0-0--0--0--0--0-----------------|
G-101010101010101010101010101010101010101010101010-10-10-10-10-----------------|
D------------------------------------------------------------------------------|
A------------------------------------------------------------------------------|
D------------------------------------------------------------------------------|


E----------------------------------------------------0--------0----------------|
B-0000--0-0-0-0-0000--0-0-0-0-0000--0-0-0-0-0--------0--------0----------------|
G-9999-10101010-9999-10101010-9999-10101010-9------9--------9------------------|
D---------------------------------------------xxx-10---xxx-10---xxx---xxx------|
A---------------------------------------------xxx------xxx------xxx---xxx------|
D---------------------------------------------xxx------xxx------xxx---xxx------|


E------------------------------------------------------------------------------|
B--9-9-9-9-9-10--9--9-9-9-9-9-10--9--9-9-9-9-9-10--9--9-9-9-9-9-10--9----------|
G-1010101010-10-10-1010101010-10-10-1010101010-10-10-1010101010-10-10--x5------|
D------------------------------------------------------------------------------|
A------------------------------------------------------------------------------|
D------------------------------------------------------------------------------|


E------------------------------------------------------------------------------|
B--9-9-9-9-9-10--9--9-9-9-9-9-10--9--------------------------------------------|
G-1010101010-10-10-1010101010-10-10--------------------------------------------|
D------------------------------------------------------------------------------|
A------------------------------------------------------------------------------|
D------------------------------------------------------------------------------|


E------------------------------------------------------------------------------|
B-00000000000000000000000000000000---0-0-0-0-0-0-0-0-0-0-0-0-0-0-0-0-----------|
G-99999999999999999999999999999999--12121212121212121212121212121212-----------|
D------------------------------------------------------------------------------|
A------------------------------------------------------------------------------|
D------------------------------------------------------------------------------|


E------------------------------------------------------------------------------|
B--0-0-0-0-0-0-0-0--0--0--0--0---0-0-0-0-0-0-0-0-0-0-0-0-0-0-0-0---------------|
G-1212121212121212-12-12-12-12--10101010101010101010101010101010---------------|
D------------------------------------------------------------------------------|
A------------------------------------------------------------------------------|
D------------------------------------------------------------------------------|


E------------------------------------------------------------------------------|
B--0-0-0-0-0-0-0-0--0--0--0--0---9-9-9-9-9-10--9--9-9-9-9-9-10--9--------------|
G-1010101010101010-10-10-10-10--1010101010-10-10-1010101010-10-10--------------|
D------------------------------------------------------------------------------|
A------------------------------------------------------------------------------|
D------------------------------------------------------------------------------|


E------------------------------------------------------------------------------|
B--9-9-9-9-9-10--9--9-9-9-9-9-10--9--9-----------------------------------------|
G-1010101010-10-10-1010101010-10-10-10-----------------------------------------|
D------------------------------------------------------------------------------|
A------------------------------------------------------------------------------|
D------------------------------------------------------------------------------|
            
Tabs too difficult? Try these video lessons and learn fast.




comments powered by Disqus
↑ Back to top | Tablatures and chords are parodies/interpretations of the original songs. You may use it for private study, scholarship, research or language learning purposes only