» » »

On The Brightside She Could Choke Tabs (ver.2)

Artists:  A B C D E F G H I J K L M N O P Q R S T U V W X Y Z # 

On The Brightside She Could Choke Tabs (ver.2)

Fear Before The March Of Flames
Rating:
0/5 (0 votes)
Tabs too difficult? Try these video lessons and learn fast.
                It's been awhile since I've been here, so ignore the other tab of mine...

This is my favorite song by FBTMOF. Oh how I miss them in their younger years. :(

This is a very easy song to play, so here's for the guitar newbies. Enjoy.

Btw, this song is never played live, along with other reasons, probably due to the fact 
they have only 1 guitarist. There are small bits where there is an extra guitar in the background.


* = Harmonic
b = bend
~ = let ring

Intro

E---0---0---0---0---0-------0---------------------------------------|
B-5-0-5-0-5-0-5-0-6-0-8-5-6-0-8-6-----------------------------------|
G-5---5---5---5---5---5-5-5---5-5-----------------------------------|
D------------------------------------------x2-----------------------|
A-------------------------------------------------------------------|
D-------------------------------------------------------------------|

"As He's Dying In His Dreams..."
E---0---0---0---0---0---0---0---0---0---0---0---0---0---0---0---0---|
B-5---5---5---5---5---5---5---5---6---6---6---6---8---8---8---8-----|
G-------------------------------------------------------------------|
D-------------------------------------------------------------------|
A-------------------------------------------------------------------|
D-------------------------------------------------------------------|

E---0---0---0---0---0---0---0---0---0---0---0---0---0---0---0---0---|
B-13--13--13--13--13--13--13--13--13--13--13--13--13--13--13--13----|
G-------------------------------------------------------------------|
D-------------------------------------------------------------------|
A-------------------------------------------------------------------|
D-------------------------------------------------------------------|

"Try And Breathe..."
E---0---0---0---0---0---0---0---0---0---0---0---0---0---0---0-------|
B-8---6---5---8---6---5---8---6---5---8---6---5---8---6---5---------|
G-------------------------------------------------------------------|
D-------------------------------------------------------------------|
A-------------------------------------------------------------------|
D-------------------------------------------------------------------|

E---0---0---0---0---0---0---0---0---0---0---0---0---0---------------|
B-5---5---6---6---8---8---6---6---5---5---6---6---5----5*-----------|
G-------------------------------------------------------------------|
D-------------------------------------------------------------------|
A-------------------------------------------------------------------|
D-------------------------------------------------------------------|

E-------------------------------------------------------------------|
B-------------------------------------------------------------------|
G--------------5-5-5-5-5--------------------------------------------|
D-5-5-5-5-5-5--3-3-3-3-3-------------5-5-5-5-5----------------------|
A-3-3-3-3-3-3--0-0-0-0-0--3-3-3-3-3--3-3-3-3-3----------------------|
D-------------------------1-1-1-1-1---------------------------------|

E-----------0----------0----0---------------------------------------|
B---------5-0--------5-0----0---------------------------------------|
G---------5----------5------5------------10-9----------12-9---------|
D---------------------------5------------10-10---------10-10--------|
A--3-3-3-------3-3-3--------0-----8-8-8---------8-8-8---------------|
D---------------------------0---------------------------------------|
                            ~

E-------------------------------------------------------------------|
B-----------------------------------8-6-5-6-------------------------|
G-------------------------------------------------------------------|
D-------------------------------------------------------------------|
A-3-3-3-3-3-3-3-3-3-3-3-3-3-3---------------------------------------|
D-1-1-1-1-1-1-1-1-1-1-1-1-1-1---------------------------------------|

E---0---0---0---0---0---0---0---0---0---0---0---0---0---0---0---0---|
B-5---5---5---5---5---5---5---5---6---6---6---6---8---8---8---8-----|
G-------------------------------------------------------------------|
D-------------------------------------------------------------------|
A-------------------------------------------------------------------|
D-------------------------------------------------------------------|

E---0---0---0---0---0---0---0---0---0---0---0---0---0---0---0---0---|
B-13--13--13--13--13--13--13--13--13--13--13--13--13--13--13--13----|
G-------------------------------------------------------------------|
D-------------------------------------------------------------------|
A-------------------------------------------------------------------|
D-------------------------------------------------------------------|


E---0---0---0---0---0---0---0---0---0---0---0---0---0---0---0-------|
B-8---6---5---8---6---5---8---6---5---8---6---5---8---6---5---------|
G-------------------------------------------------------------------|
D-------------------------------------------------------------------|
A-------------------------------------------------------------------|
D-------------------------------------------------------------------|

E---0---0---0---0---0---0---0---0---0---0---0---0---0---------------|
B-5---5---6---6---8---8---6---6---5---5---6---6---5----5b-----------|
G-------------------------------------------------------------------|
D-------------------------------------------------------------------|
A-------------------------------------------------------------------|
D-------------------------------------------------------------------|

E-------------------------------------------------------------------|
B-------------------------------------------------------------------|
G--------------5-5-5-5-5--------------------------------------------|
D-5-5-5-5-5-5--3-3-3-3-3-------------5-5-5-5-5----------------------|
A-3-3-3-3-3-3--0-0-0-0-0--3-3-3-3-3--3-3-3-3-3----------------------|
D-------------------------1-1-1-1-1---------------------------------|

E---------0---------0---------------------0---0----------0---0-------|
B-------5-0-------5-0-------------------5---5---5-6-5--5---5---5-6-5-|
G-------5---------5--------------------------------------------------|
D--------------------------------------------------------------------|
A-3-3-3-----3-3-3-------3-3-3--3-3-3---------------------------------|
D--------------------------------------------------------------------|

E--------------------------------------------------------------------|
B----0---0----------0---0--------------------------------------------|
G--5---5---5-4-5--5---5---5-4-5--------------------------------------|
D--------------------------------------------------------------------|
A--------------------------------------------------------------------|
D--------------------------------------------------------------------|

E-------------------------------------------------------------------|
B-------------------------------------------------------------------|
G--------------5-5-5-5-5--------------------------------------------|
D-5-5-5-5-5-5--3-3-3-3-3-------------5-5-5-5-5----------------------|
A-3-3-3-3-3-3--0-0-0-0-0--3-3-3-3-3--3-3-3-3-3----------------------|
D-------------------------1-1-1-1-1---------------------------------|

Outro

E--------------------------------------------------------------------|
B----0---0----------0---0--------------------------------------------|
G--5---5---5-4-5--5---5---5-4-5----0---------------------------------|
D----------------------------------0---------------------------------|
A----------------------------------3---------------------------------|
D----------------------------------1---------------------------------|
                                   ~
            
Tabs too difficult? Try these video lessons and learn fast.


comments powered by Disqus
↑ Back to top | Tablatures and chords are parodies/interpretations of the original songs. You may use it for private study, scholarship, research or language learning purposes only