>
 >
State Of Texas Vs Fear Before 1

State Of Texas Vs Fear Before 1 Guitar Tabs

Fear Before The March Of Flames - State Of Texas Vs Fear Before 1 chords, tabs, tablatures, lyrics

Guitar lessons | Add/correct | Request | Top 50 tabs Artists:  A B C D E F G H I J K L M N O P Q R S T U V W X Y Z 0-9

State Of Texas Vs Fear Before 1 Guitar Tabs – Fear Before The March Of Flames

CD, Sheet music, Poster

Do you like State Of Texas Vs Fear Before 1? Share with your friends now
TabsTabs v2
-------------------------------------------------------------------------------
                 The State of Texas vs. Fear Before - Fear Before
-------------------------------------------------------------------------------
 

 x4
e|--------------------------------|
B|4p0-----6p0-----4p0-6p0--xxx----|
G|----3p0-----5p0----------xxx----|
D|-------------------------xxx----|
A|--------------------------------|
D|--------------------------------|

e|-----------------|
B|-----------------|
G|101010101010-----|
D|9-9-9-9-9-9------|
A|-----------------|
D|-----------------|

e|----------------------------|
B|----------------------------|
G|6p0-------8p0---------------|
D|----8p0-------10p0----------|
A|--------6----------8-8------|
D|--------6----------8-8------|

e|-------------------------------------------------|
B|-------------------------------------------------|
G|8-8-8-8-8-8-8-8-8-----------1010101010101010-----|
D|101010101010101010-8-8-8-8--9-9-9-9-9-9-9-9------|
A|-------------------10101010----------------------|
D|-------------------------------------------------|

e|-------6--------------|
B|-------8--------------|
G|0h8h10----------------|
D|----------------------|
A|---------000-0-0------|
D|---------000-0-0------|
           ... . .

e|----------------------------|
B|----------------------------|
G|6p0-------8p0---------------|
D|----8p0-------10p0----------|
A|--------6----------8-8------|
D|--------6----------8-8------|

e|-------------------------------------------------|
B|-------------------------------------------------|
G|8-8-8-8-8-8-8-8-8-----------1010101010101010-----|
D|101010101010101010-8-8-8-8--9-9-9-9-9-9-9-9------|
A|-------------------10101010----------------------|
D|-------------------------------------------------|

e|-------6--------------|
B|-------8--------------|
G|0h8h10----------------|
D|----------------------|
A|---------000-0-0------|
D|---------000-0-0------|
           ... . .

 x4
e|--------------------------------|
B|4p0-----6p0-----4p0-6p0--xxx----|
G|----3p0-----5p0----------xxx----|
D|-------------------------xxx----|
A|--------------------------------|
D|--------------------------------|

 x4
e|--------------------------------------------|
B|--------------------------------6/88888-----|
G|---6p0--------6p0-------6p0-----------------|
D|-------8p0--------8p0-------8p0-------------|
A|55---------55---------55--------------------|
D|55---------55---------55--------------------|

e|----------------------------|
B|----------------------------|
G|6p0-------8p0---------------|
D|----8p0-------10p0----------|
A|--------6----------8-8------|
D|--------6----------8-8------|

e|-------------------------------------------------|
B|-------------------------------------------------|
G|8-8-8-8-8-8-8-8-8-----------1010101010101010-----|
D|101010101010101010-8-8-8-8--9-9-9-9-9-9-9-9------|
A|-------------------10101010----------------------|
D|-------------------------------------------------|

e|-------6--------------|
B|-------8--------------|
G|0h8h10----------------|
D|----------------------|
A|---------000-0-0------|
D|---------000-0-0------|
           ... . .

e|----------------------------|
B|----------------------------|
G|6p0-------8p0---------------|
D|----8p0-------10p0----------|
A|--------6----------8-8------|
D|--------6----------8-8------|

e|-------------------------------------------------|
B|-------------------------------------------------|
G|8-8-8-8-8-8-8-8-8-----------1010101010101010-----|
D|101010101010101010-8-8-8-8--9-9-9-9-9-9-9-9------|
A|-------------------10101010----------------------|
D|-------------------------------------------------|

e|-------6--------------|
B|-------8--------------|
G|0h8h10----------------|
D|----------------------|
A|---------000-0-0------|
D|---------000-0-0------|
           ... . .

 x2
e|-----------------------|
B|-----------------------|
G|-----------------------|
D|-----------------------|
A|-----------------------|
D|12-000-8-000-12-8-5----|

e|----------------------------------------------------------------|
B|----------------------------------------------------------------|
G|----------------------------------------------------------------|
D|----------------------------------------------------------------|
A|----------------------------------------------------------------|
D|12-000-13-000-12-000-13-000-12-000-13-000-12-000-13-000-12-8-5--|

 x2
e|-----------------------|
B|-----------------------|
G|-----------------------|
D|-----------------------|
A|-----------------------|
D|12-000-8-000-12-8-5----|

e|----------------------------------------------------------------|
B|----------------------------------------------------------------|
G|----------------------------------------------------------------|
D|----------------------------------------------------------------|
A|----------------------------------------------------------------|
D|12-000-13-000-12-000-13-000-12-000-13-000-12-000-13-000-12-8-5--|

e|-------------------------------------|
B|-------------------------------------|
G|3-3-3-3-3-3-3-3-3-5-5-5-5-5-5-5-5----|
D|x-x-x-x-x-x-x-x-x-x-x-x-x-x-x-x-x----|
A|3-3-3-3-3-3-3-3-3-5-5-5-5-5-5-5-5----|
D|-------------------------------------|

 x4
e|------------------------------|
B|-----------------------xxx----|
G|3p0-----5p0-----3p0-5--xxx----|
D|----3p0-----5p0--------xxx----|
A|------------------------------|
D|------------------------------|

e|----------------------------|
B|----------------------------|
G|3-000-3-000-3-0-3-000-------|
D|----------------------3h5---|
A|----------------------------|
D|----------------------------|

 x4                                            x1
e|--------------------------------------------|-------|
B|--------------------------------6/88888-----|-------|
G|---6p0--------6p0-------6p0-----------------|-------|
D|-------8p0--------8p0-------8p0-------------|-------|
A|55---------55---------55--------------------|5-5----|
D|55---------55---------55--------------------|5-5----|





Comments


Popular Fear Before The March Of Flames tabs & chords
Given To Dreams Bass Tabs
On The Bright Side, (She Could Choke) Bass Tabs
Drowning The Old Hag Intro Tabs
Hey Kid Im A Computer Stop All The Donwloading Tabs
High As A Horse 1 Tabs
Lisbon Girls Oh The Lisbon Girls Tabs
Motelroom Grandpiano 1 Tabs
Should Have Stayed In The Shallows Tabs
The Waiting Makes Me Curious Tabs
Tycho Tabs


Song lyrics



↑ Back to top | Tablatures and chords are parodies/interpretations of the original songs. You may use it for private study, scholarship, research or language learning purposes only
© 2014 AZChords.com Contact us | Privacy policy | DMCA | Add/correct tabs | Request tabs | Top 50 tabs