» » »

Brave Captain Bass tabs (ver.1)

Artists:  A B C D E F G H I J K L M N O P Q R S T U V W X Y Z # 

Brave Captain Bass tabs (ver.1)

Firehose
Rating:
5/5 (2 votes)

Tabs too difficult? Try these video lessons and learn fast.
                fIREHOSE
Ragin', Full-On

Here are all of the riffs.  Use the song to figure out the order, its pretty 
 Its a very easy tune.  The only hard part is getting that one pop in on the verse...

Opening Slide -

G--14\--|
D-------|
A-------|
E-------|

Intro/Verse/Guitar Solo-
             P
G------------------------------9-7---------------------|
D-----7-7----5--------7-7----7-----9-------------------|
A--------5-7---7-5--5----5-7---------------------------|
E------------------------------------------------------|

             P
G------------------------------------------------------|
D-----7-7----5--------7-7----7-------------------------|
A--------5-7---7-5--5----5-7---7-5---------------------|
E----------------------------------7-------------------|

             P
G------------------------------------------------------|
D-----7-7----5--------7-7----7----------5--------------|
A--------5-7---7-5--5----5-7--------5-7----------------|
E------------------------------5-7-8-------------------|

Chorus-

G------------------------------------------------------|
D----7-----------------7-----7-5-4---------------------|
A-5-5-5-3-3-----2-3-5-5-5--3-------7-5-----------------|
E-----------3-5----------------------------------------|

Outro-
G---------------/9-7--5-3-2----------------14----------|
D-------------7-------------5----------7---------------|
A-----------7--------------------------7---------------|
E-1---3---5--------------------1---3---5---------------|

Legend:
P = Pop
/ = Slide up
\ = Slide Down
            
Tabs too difficult? Try these video lessons and learn fast.


comments powered by Disqus
↑ Back to top | Tablatures and chords are parodies/interpretations of the original songs. You may use it for private study, scholarship, research or language learning purposes only