>
 >
Chemical Wire

Chemical Wire Bass Tabs

Firehose - Chemical Wire chords, tabs, tablatures, lyrics

Guitar lessons | Add/correct | Request | Top 50 tabs Artists:  A B C D E F G H I J K L M N O P Q R S T U V W X Y Z 0-9

Chemical Wire Bass Tabs – Firehose

CD, Sheet music, Poster

Do you like Chemical Wire? Share with your friends now
Bass Tabs
fIREHOSE
Ragin', Full-On
Mike Watt (Bass)/Ed Crawford (Guitar/Vocals)/George Hurley (Drums)

This tune has a difficult order to it, so felt nice and gave you the order of riffs.  
is also a legend, since there are a lot of weird symbols in this one.

Intro/Main Riff
G-----------------------------12-12------------------------|
D------9-7-5---5---------9-7-------------------------------|
A------------7---7-----------------------------------------|
E-33333-------------33333----------------------------------|

G----------------------------------------------14p12--12----|
D-------9-7-5---5------------------12--12h14---------14-----|
A-------------7---7-------10-12/14---14---------------------|
E-33333--------------10h12----------------------------------|


Verse (x2)
G------------------------------------|
D----------------7-5-----------------|
A--------------------7/20\-----------|
E-33333\-0-33333---------------------|

Chorus Riff 1
G-10p9-10p9-10p9-x-x-x-x-x-x-12p10-x-x--------------|
D-10p9-10p9-10p9-x-x-x-x-x-x-12p10-x-x--------------|
A---------------------------------------------------|
E---------------------------------------------------|

Chorus Riff 2
G----------16~-----------12~-------------------------------|
D------9-7-----------9-7-----------------------------------|
A----5-------------5---------------------------------------|
E-3-3-----------3-3----------------------------------------|

Pre Solo-

G---------------------------------------------------------|
D--5\---9-7-5---5---------------------------7-5-----------|
A-----X-------7---------------------------------7/20\-----|
E------------------33333-33333-33333-33333----------------|

Guitar Solo -
G------0-0-0---------------------------0-0-0-------------------|
D------0-7*0--------7-5----------------0(7)0-------7-5---------|
A------5-5-5------------7-/20\---------5-5-5-----------7-/20\--|
E-33333-------33333-------------333333-------33333-------------|

Preverse-
G-----------16~--------------------------|
D-------9-7----------9-7-5---5-----------|
A-----5-------------------7--------------|
E-3-3-----------3\-X---------------------|


Outro Riff 1(Play G only first time)-
G-----------------------------------------------------------------|
D-----------------2-2-2-------------------------------------------|
A---------7-7-----0-2-0-------------------------------------------|
E-3\--0-0-0-0-0-0-0-0-0-------------------------------------------|

Outro Riff 2
G--------9--------------------------------------|
D--------9--------------------------------------|
A-7-7-7****7-7-7-7-7-7--------------------------|
E-0-0-0****0-0-0-0-0-0--------------------------|

Ending Chords-

G-9-9----------------------------|
D-9-6----------------------------|
A-7-7----------------------------|
E-0-0----------------------------|

Legend:
h = Hammer-on
p = Pull-off
X = Muted Note
()= Natural Harmonic
* = Let Ring
\ = Slide Down
/ = Slide Up

Intro             X1
Verse             X2
Main Riff         x1
Verse             X2
Chorus Riff 1     X4
Chorus Riff 2     x3
Presolo           x1
Guitar Solo       x1
Chorus Riff 2     x1
Preverse          x1
Main Riff         x1
Chorus Riff 2     x3
Outro Riff 1      x4
Outro Riff 2      x3.5
Ending Notes      x1





Comments


Popular Firehose tabs & chords
Another Theory Shot To Shit Bass Tabs
Cant Believe Bass Tabs
Honey Please 1 Bass Tabs
Making The Freeway 1 Bass Tabs
The Candle And The Flame Bass Tabs
The Candle And The Flame 1 Bass Tabs
Brave Captain Chords
Liberty For Our Frined Chords
For The Singer Of Rem Tabs
Brave Captain Ukulele


Song lyrics



↑ Back to top | Tablatures and chords are parodies/interpretations of the original songs. You may use it for private study, scholarship, research or language learning purposes only
© 2014 AZChords.com Contact us | Privacy policy | DMCA | Add/correct tabs | Request tabs | Top 50 tabs