» » »

Ghetto Soundwave Bass tabs (ver.1)

Artists:  A B C D E F G H I J K L M N O P Q R S T U V W X Y Z # 

Ghetto Soundwave Bass tabs (ver.1)

Fishbone
Rating:
0/5 (0 votes)

Tabs too difficult? Try these video lessons and learn fast.
                Band: Fishbone

It's a great song from great band.

here it goes


INTRO:
G------------------------------------|
D------------------------------------|   2x
A------------------------------6-----|
E-4-4----x4-4----x4-4----x-4-4-------|

G------------------------------------|
D------------------------------------|
A-------------6----------------------|   3x
E-4-4----x4-4------------------------|

G------------------------------------|
D------------------------------------|
A-----4---6---4----------------------|
E-4-4---4---4---4--------------------|

VERSE:
G----------------------------------------|
D--4-5-6---------------------------------|
A--------------------------4---6---4-----|
E--------4---2-2-3-4-----4---4---4---4---|

VERSE VARIATION:
G----------------------------------------|
D----------------------------------------|
A----------------------------4---6-4-----|
E-------------------------44---4-----4---|

CHORUS:             2x
G------------------------------------|-------------------|
D------------------------------------|-------------------|
A-1--3--4-4-4-4-------4----------4---|-------4---6---4---|
E----------------4-x4---4---4-x4---4-|--4-x4---4---4---4-|

I PLAY THIS PART ALSO LIKE THIS:
G------------------------------------|
D------------------------------------|
A----6--4-4-4-4------4----------4----|
E--6------------4-x4---4---4-x4---4--| etc


BRIDGE:
G---------------------------------------------------|
D----------44-66------44-66------44-66--------------|
A---------------------------------------4444444-----|
E-2-3-4444--------444--------444--------------------|

G-----------------------------------------|
D-----------------------------------------|
A-------4----------4----------4---6---4---|
E--4-x4---4---4-x4---4---4-x4---4---4---4-|

That's All.
            
Tabs too difficult? Try these video lessons and learn fast.




comments powered by Disqus
↑ Back to top | Tablatures and chords are parodies/interpretations of the original songs. You may use it for private study, scholarship, research or language learning purposes only