» » »

Every New Day Bass tabs (ver.1)

Artists:  A B C D E F G H I J K L M N O P Q R S T U V W X Y Z # 

Every New Day Bass tabs (ver.1)

Five Iron Frenzy
Rating:
0/5 (0 votes)

Tabs too difficult? Try these video lessons and learn fast.
                "Every New Day" by Five Iron Frenzy



Tab, and also because this makes it a lot easier to print or to read, I made in into a
tab; I did add lyrics and some other stuff to make it easy to know whats where and such. 
I put it up on the internet because the person I sent the Notepad file too couldn't get it
open on their computer, so I did the next best thing!


**Intro, Verse, Chorus**

G:|-------------------------------|
D:|-------------------------------|
A:|-4-4--------6-6-7-7---------3-3|
E:|------5-7-7-----------7-5-5----|

**Pre-Chorus**


Lyrical Queues

1st: "When the stars threw down their spears"

2nd: "Through distant deeps and skies"

G:|--------------6-6--|-----------------|
D:|--4-4---4-7-7------|-------------6-6-|   [x2]
A:|-------------------|--4-4---4-7-7----|
E:|-------------------|-----------------|

G:|-------------------|-------------------|
D:|--7-7---7----------|----------6-6-9-9--|
A:|----------4-4-6-6--|--7-7---7----------|
E:|-------------------|-------------------|

G:|----------6-6------|----------5-5------|
D:|--7-7---7-----7-7--|--6-6---6----6-6---|
A:|-------------------|-------------------|
E:|-------------------|-------------------|

**Bridge**

Instrumental, no lyrics

G:|---------------------------|-----------------------|
D:|---------------------------|-----------------------|
A:|---------3-3---3-6---6-----|---------4-4-4-7---7---|
E:|--4---------------------4--|--5------------------5-|

G:|---------------------------|--------------------|--------------------|
D:|---------------------------|--------------------|--------------------|
A:|---------3-3---3-6---6-----|---------4-7-4------|----------6-9-6-----|
E:|--4---------------------4--|--5-------------5---|--7--------------7--|

**Build Up Part One**

Right into after Bridge
Lyrical Queue during Build Up:

"Man versus himself.
Man versus machine.
Man versus the world.
Mankind versus me.
The struggles go on,
The wisdom I lack,
The burdens keep piling
Up on my back."

G:|-----------------------------------|-----------------------------------|
D:|---------2-2---------------2-2-----|---------4-4--------------4-4------|
A:|---4-4-4-------------4-4-4---------|---5-5-5------------5-5-5----------|
E:|-------------4-4---------------4-4-|-------------5-5--------------5-5--|


**Build Up Part Two**

Lyrical Queue
Starting on...

"So hard to breathe,
To take the next step.
The mountain is high,
I wait in the depths.
Yearning for grace,
And hoping for peace.
Dear God...
Increase."

G:|-------------------------------------|---------------------------------------|
D:|-------------------------------------|---------------------------------------|
A:|---------6-6----------------6-6------|-----------4-4----------------4-4------|
E:|---7-7-7-----7-7----7-7-7-7-----7-7--|---5-5-5-5-----5-5----5-5-5-5-----5-5--|


G:|-------------------------------------|---------------------------------------|
D:|-------------------------------------|---------------------------------------|
A:|---------6-6----------------6-6------|---------------------------------------|
E:|---7-7-7-----7-7----7-7-7-7-----7-7--|---5-5-5-5-5-5-5-5---7-7-7-7-7-7-7-7---|

**Outro**


G:|---------------------------------------------------------------------|
D:|---------------------------------------------------------------------|
A:|--7-7-7-7-7-7-7-7----------------------------------------------------|
E:|-------------------7-7-7-7-7-7-7-7--4-4-4-4-4-4-4-4--9-9-9-9-7-7---5-|

G:|---------------------------------------------------------------------|
D:|---------------------------------------------------------------------|
A:|---------------------------------------------------------------------|
E:|--5-5-5-5-5-5-5----0-0-0-0-0-0-0-0--2-2-2-2-2-2-2-2--7-7-7-7-7-7-7-7-|

[x2]

Then

G:|---------------------------------------------------------------------|
D:|---------------------------------------------------------------------|
A:|--7-7-7-7-7-7-7-7----------------------------------------------------|
E:|-------------------7-7-7-7-7-7-7-7--8-8-8-8-8-8-8-8--9-9-9-9-7-7---5-|

G:|---------------------------------------------------------------------|
D:|---------------------------------------------------------------------|
A:|---------------------------------------------------------------------|
E:|--5-5-5-5-5-5-5----4-4-4-4-4-4-4-4--2-2-2-2-2-2-2-2--7-7-7-7-7-7-7-7-|

Until The End and End on...

G:|-------|
D:|-------|
A:|---7---|
E:|-------|
            
Tabs too difficult? Try these video lessons and learn fast.




comments powered by Disqus
↑ Back to top | Tablatures and chords are parodies/interpretations of the original songs. You may use it for private study, scholarship, research or language learning purposes only