» » »

All Around Me Bass tabs (ver.4)

Artists:  A B C D E F G H I J K L M N O P Q R S T U V W X Y Z # 

All Around Me Bass tabs (ver.4)

Flyleaf
Rating:
3/5 (1 vote)

Tabs too difficult? Try these video lessons and learn fast.
                -------------------------------------------------------------------------------
-------------------------------------------------------------------------------

Tuning: Drop D

Intro                  (Those are fourteens!)
G|--------------------------------------------------------------------------|
D|--------------------------------------------------------------------------|
A|--------------------------------------------------------------------------|
D|--44444444/77777777/1414141414141414141414141414--444~/777~\222~-000~-7~--|

Verse
G|------------------------------------|
D|------------------------------------| x5
A|------------------------------------|
D|--44444444000000007777777777777777--|

Pre-Chorus
G|--------------------|    |--------------------|
D|--------------------| x2 |--------------------|
A|--------------------|    |--------------------|
D|--6666777799999999--|    |--7777777777777777--|

Chorus
G|-----------------------------------|    |------|
D|-----------------------------------| x2 |------|
A|-----------------------------------|    |------|
D|--4-4-4-4-7-7-7-7-2-2-2-2-0-0-0-0--|    |--7~--|

Verse
G|------------------------------------|
D|------------------------------------| x4
A|------------------------------------|
D|--44444444000000007777777777777777--|

Pre-Chorus
G|--------------------|    |--------------------|
D|--------------------| x2 |--------------------|
A|--------------------|    |--------------------|
D|--6666777799999999--|    |--7777777777777777--|

Chorus
G|-----------------------------------|    |------|
D|-----------------------------------| x2 |------|
A|-----------------------------------|    |------|
D|--4-4-4-4-7-7-7-7-2-2-2-2-0-0-0-0--|    |--7~--|

Bridge
G|-------------------------------------------|
D|-------------------------------------------|
A|-------------------------------------------|
D|--4-4-4-4-7-7-7-7-11-11-11-11-11-11-11-11--|
						(That’s sixteen fourteens!)
G|---------------------------------------------------------------|
D|---------------------------------------------------------------|
A|---------------------------------------------------------------|
D|--4-4-4-4-7-7-7-7-0-0-0-0-0-11-12-11-4-4-4-4-7-7-7-7-14-(x16)--|

Pre-Chorus
G|--------------------|    |--------------------|
D|--------------------| x3 |--------------------|
A|--------------------|    |--------------------|
D|--6666777799999999--|    |--7777777777777777--|

Chorus
G|-----------------------------------|    |------|
D|-----------------------------------| x2 |------|
A|-----------------------------------|    |------|
D|--4-4-4-4-7-7-7-7-2-2-2-2-0-0-0-0--|    |--7~--|

Interlude
G|---------------------------------|
D|---------------------------------|
A|---------------------------------|
D|--2-2----4----7h9-7h9-440~----7--|

Chorus
G|-----------------------------------|    |------|
D|-----------------------------------| x2 |------|
A|-----------------------------------|    |------|
D|--4-4-4-4-7-7-7-7-2-2-2-2-0-0-0-0--|    |--7~--|




| /  slide up
| \  slide down
| h  hammer-on
| p  pull-off
| ~  let note ring
| +  harmonic
| x  Mute note
===============================================================================
            
Tabs too difficult? Try these video lessons and learn fast.


comments powered by Disqus
↑ Back to top | Tablatures and chords are parodies/interpretations of the original songs. You may use it for private study, scholarship, research or language learning purposes only