» » »

Breathe Today Bass tabs (ver.2)

Artists:  A B C D E F G H I J K L M N O P Q R S T U V W X Y Z # 

Breathe Today Bass tabs (ver.2)

Flyleaf
Rating:
0/5 (0 votes)
Tabs too difficult? Try these video lessons and learn fast.
                -------------------------------------------------------------------------------
			     Breathe Today - Flyleaf
-------------------------------------------------------------------------------



Tuning: Standard (EADG) Low to high


Intro (No bass)


Verse 1 x2 (0:10)

G|----------------------|
D|----------------------|
A|----------------------|
E|77---77---77--353-232-|


Pre-Chorus x1

G|---------------------------------------------------------------------|
D|---------------------------------------------------------------------|
A|---------------------------------------------------------------------|
E|3-3-3-3-3-3-3-3-2-2-2-2-2-2-2-2-3-3-3-3-3-3-3-3-2-2-2-2-2/1414141414-|


Chorus x2

G|---------------------|
D|---------------------|
A|---------------------|
E|7777-3333-5555-3/-5\-|


Verse 2 x1 (0:45)

G|------------------------------------|
D|------------------------------------|
A|------------------------------------|
E|3/15\353-232--77---77---77--353-232-|

G|---------------------------|
D|---------------------------|
A|---------------------------|
E|77---77---77223355-353-232-|


Pre-Chorus x1

G|---------------------------------------------------------------------|
D|---------------------------------------------------------------------|
A|---------------------------------------------------------------------|
E|3-3-3-3-3-3-3-3-2-2-2-2-2-2-2-2-0-0-0-0-3-3-3-3-2-2-2-2-2/1414141414-|

Chorus x3


Then...

G|-------------------|
D|-------------------|
A|-------------------|
E|7777-3333-5555-3-\-|


Pre-Solo x1

G|-------------------------------------|
D|-------------------------------------|
A|-------------------------------------|
E|0000-3333-22222222-0000-3333-22222-\-|


Guitar Solo x1

G|---------------------|
D|---------------------|
A|---------------------|
E|7777-3333-5555-3/-5\-|


Bridge x1

G|-------------------------------------------------------|
D|-------------------------------------------------------|
A|-------------------------------------------------------|
E|00--00-33-33--22---22-22-22--00--00-33-33--22---22-222-|


Outro

G|---------------------|
D|---------------------|
A|---------------------| x1
E|7777-3333-5555-3/-5\-|

G|-------------------|
D|-------------------|
A|-------------------| x1
E|7777-3333-5555-3-\-|

G|---------------------|
D|---------------------|
A|---------------------| x3
E|7777-3333-5555-3/-5\-|

G|-------------------|
D|-------------------|
A|-------------------|
E|7777-3333-5555-3-\-|



| /  slide up
| \  slide down
| h  hammer-on
| p  pull-off
| ~  vibrato
| +  harmonic
| x  Mute note
===============================================================================
            
Tabs too difficult? Try these video lessons and learn fast.


comments powered by Disqus
↑ Back to top | Tablatures and chords are parodies/interpretations of the original songs. You may use it for private study, scholarship, research or language learning purposes only