» » »

Cassie Tabs (ver.6)

Artists:  A B C D E F G H I J K L M N O P Q R S T U V W X Y Z # 

Cassie Tabs (ver.6)

Flyleaf
Rating:
0/5 (0 votes)

Tabs too difficult? Try these video lessons and learn fast.
                love this song and its pretty fun to play with 2 guitars and a pretty singer

GUITAR 1 VERSE
      TWELVE NOT ONE TWO’S
e---12-00-8-00-7-00-2-00-3-0-2-0----12-00-8-00-7-00-2-00-3-0-2-0------------|
B---------------------------------------------------------------------------|
G --------------------------------------------------------------------------|
D---------------------------------------------------------------------------|
A---------------------------------------------------------------------------|
E---------------------------------------------------------------------------|

GUITAR 2 VERSE
e---------3-----3-----------3------3----------------------------------------|
B---------------------------------------------------------------------------|
G -----0-----0-------0-0--0-----0-----0-0-----------------------------------|
D-----2-2---2-2-----2-2--2-2---2-2---2-2------------------------------------|
A---------------------------------------------------------------------------|
E---------------------------------------------------------------------------|

e----------------0-----0---------------0------0--------0--------------------|
B---------------------------------------------------------------------------|
G --------------------------------------------------------------------------|
D-------------2-----2--------2-2----2------2--------2------2-2--------------|
A------------3-3---3-3------3-3----3-3----3-3------3-3----3-3---------------|
E---------------------------------------------------------------------------|

DO THIS BEFORE CHORUS

GUITAR 1
e—12-00-8-00-7-00-2-00-3-2-0-12-00-8-00-7-0-0~------------------------------|
B-------------------------------------------0~------------------------------|
G-------------------------------------------0~------------------------------|
D-------------------------------------------2~------------------------------|
A-------------------------------------------2~------------------------------|
E-------------------------------------------0~------------------------------|

GUITAR 2
e--------3-----3-----------3-------0~---------------------------------------|
B----------------------------------0~---------------------------------------|
G -----0-----0-------0-0--0-----0--0~---------------------------------------|
D-----2-2---2-2-----2-2--2-2---2-2-2~---------------------------------------|
A----------------------------------2~---------------------------------------|
E----------------------------------0~---------------------------------------|

CHORUS

 C9           D                      D9               Em
They didn’t love there life so much as to shrink from death
 C9                     D     D9             Em
Inspired in there footsteps, we will march ahead
 C9       D            D9     Em
Don’t be shocked that people die
C9    D            D9     Em
Be surprised your still alive

DO VERSE
DO CHORUS

OUTRO
           GUITAR 1
e---12-00-8-00-7-00-2-00-3-0-2-0----12-00-8-00-7-00-2-00-3-0-2-0------------|
B---------------------------------------------------------------------------|
G --------------------------------------------------------------------------|
D---------------------------------------------------------------------------|
A---------------------------------------------------------------------------|
E---------------------------------------------------------------------------|

e---12-00-8-00-7-00-2-00-3-0-2-0----12-00-8-0-0~------------------|
B---------------------------------------------0~------------------|
G --------------------------------------------0~------------------|
D---------------------------------------------2~------------------|
A---------------------------------------------2~------------------|
E---------------------------------------------0~------------------|

GUITAR 2

e---------3-----3-----------3------3----------------------------------------|
B---------------------------------------------------------------------------|
G -----0-----0-------0-0--0-----0-----0-0-----------------------------------|
D-----2-2---2-2-----2-2--2-2---2-2---2-2------------------------------------|
A---------------------------------------------------------------------------|
E---------------------------------------------------------------------------|

e--------3-----3-----------3-------0~---------------------------------------|
B----------------------------------0~---------------------------------------|
G -----0-----0-------0-0--0-----0--0~---------------------------------------|
D-----2-2---2-2-----2-2--2-2---2-2-2~---------------------------------------|
A----------------------------------2~---------------------------------------|
E----------------------------------0~---------------------------------------|
            
Tabs too difficult? Try these video lessons and learn fast.




comments powered by Disqus
↑ Back to top | Tablatures and chords are parodies/interpretations of the original songs. You may use it for private study, scholarship, research or language learning purposes only