» » »

After Glow Tabs (ver.1)

Artists:  A B C D E F G H I J K L M N O P Q R S T U V W X Y Z # 

After Glow Tabs (ver.1)

Foals
Rating:
2/5 (2 votes)

Tabs too difficult? Try these video lessons and learn fast.
                Hi guys,

After searching this song tab for a while with no result, I tried to adapt it by myself 
finally found something that sounds pretty good.
Foals use a delay combination in this song and mix several guitars together, so sorry 
I'm not a wizzard and it will not sound like the original !

However, I hope that this adaptation for one guitar will help you. You can play it on 
clean channel, but it sounds better with a delay/tremolo combo to be closer to the original.

Please don't hesitate to give advises or critics to improve this tab (this is my first 
!)

Enjoy

Dgiff

-----------------------------FOALS AFTER GLOW--------------------------------


I let u find the rythm & the transitions by yourself, it's too boring to transcribe ;)

Chords : Am, C, Am7


Intro/Verse

 e |---0---0h2---2s3---3s2---3-0-------------------------|
 b |---1---1-1---1-1---1-1---1-1-------------------------|
 g |---2---2-2---2-2---2-2---2-2-------------------------|
 d |---2---2-2---2-2---2-2---2-2-------------------------|
 a |---0---0-0---0-0---0-0---0-0-------------------------|
 E |--(0)------------------------------------------------|

 e |---7---7---7---7-------------------------------------|
 b |---5---7---8---7-------------------------------------|
 g |---5---5---5---5-------------------------------------|
 d |---5---5---5---5-------------------------------------|
 a |---7---0---0---0-------------------------------------|
 E |---5--(0)-(0)-(0)------------------------------------|


Chorus

 e |---0---5---------------------------------------------|
 b |---1---5---------------------------------------------|
 g |---0---5---------------------------------------------|
 d |---2---5---------------------------------------------|
 a |---3---7---------------------------------------------|
 E |---0---5---------------------------------------------|


-----------------------------------END---------------------------------------
            
Tabs too difficult? Try these video lessons and learn fast.




comments powered by Disqus
↑ Back to top | Tablatures and chords are parodies/interpretations of the original songs. You may use it for private study, scholarship, research or language learning purposes only