» » »

Balloons Tabs (ver.4)

Artists:  A B C D E F G H I J K L M N O P Q R S T U V W X Y Z # 

Balloons Tabs (ver.4)

Foals
Rating:
0/5 (0 votes)

Tabs too difficult? Try these video lessons and learn fast.
                -------------------------------------------------------------------------------
                             Balloons - Foals
-------------------------------------------------------------------------------

Tuning: Drop D
[Guitar 1] Intro ~ 0:00 – 0:32  (roughly 80 times)
e|-------------------------------------------------------------------------|
B|-------------------------------------------------------------------------|
G|---- +7------------------------------------------------------------------|
D|---+7--------------------------------------------------------------------|
A|-------------------------------------------------------------------------|
D|-------------------------------------------------------------------------|
[Guitar 2] Intro ~ 0:20 – 0:44 (8 times)
e|-------------------------------------------------------------------------|
B|------------------------------------13---15---13---13--------------------|
G|---------------12 h 14--12-12 / 14---14---14---14------------------------|
D|---0-h-12-h-15-----------------------------------------------------------|
A|-------------------------------------------------------------------------|
D|-------------------------------------------------------------------------|
Intro part 2 ~ 0:44 – 0:57 (4 times)
                      u    u   u   u   u   d   u   d
e|-------------------------------------------------------------------------|
B|-------------------------------------------------------------------------|
G|---------------12---12--12--14--14--14--14--14--14-----------------------|
D|---0-h-12-h-15---0---0---0---0---0---0---0---0---0-----------------------|
A|-------------------------------------------------------------------------|
D|-------------------------------------------------------------------------|
Verse 1 ~ 0:57 – 1:22 (8 times)
e|-------------------------------------------------------------------------|
B|---------------------------------------13---15---13----------------------|
G|---------------12 h 14--12-12 / 14---14---14---14--14--------------------|
D|---0-h-12-h-15-----------------------------------------------------------|
A|-------------------------------------------------------------------------|
D|-------------------------------------------------------------------------|

Chorus 1 ~ 1:22 – 1:34 (2 times)
e|-------------------------------------------------------------------------|
B|---10-10-10-10-----------------------------------------------------------|
G|---------------12--9--9--------------------------------------------------|
D|------------------------10-h-12-12-12------------------------------------|
A|-------------------------------------------------------------------------|
D|-------------------------------------------------------------------------|

e|-------------------------------------------------------------------------|
B|---6-6-6-6---------------------------------------------------------------|
G|-----------12--9--9------------------------------------------------------|
D|--------------------10-h-12-12-12----------------------------------------|
A|-------------------------------------------------------------------------|
D|-------------------------------------------------------------------------|

Bridge – 1:34 – 2:12
Do these hits on the “1” 
(There are also little diddles of stuff but its really hard to decipher) 
e|-------------------------------------------------------------------------|
B|-------------------------------------------------------------------------|
G|-------------------------------------------------------------------------|
D|---0----0----0----0----0----0----0----0----0----0----0----0--------------|
A|---0----0----0----0----0----0----0----0----0----0----0----0--------------|
D|---0----0----0----0----0----0----0----0----0----0----0----0--------------|

Chorus 2 / Outro ~ 2:12 – 2:49 (6 times)
e|-------------------------------------------------------------------------|
B|---10-10-10-10-----------------------------------------------------------|
G|---------------12--9--9--------------------------------------------------|
D|------------------------10-h-12-12-12------------------------------------|
A|-------------------------------------------------------------------------|
D|-------------------------------------------------------------------------|

e|-------------------------------------------------------------------------|
B|---6-6-6-6---------------------------------------------------------------|
G|-----------12--9--9------------------------------------------------------|
D|--------------------10-h-12-12-12----------------------------------------|
A|-------------------------------------------------------------------------|
D|-------------------------------------------------------------------------|

Lyrics:

There’s a thing called
There’s this thing called
We fly balloons on this fuel called
We fly balloons on this fuel called love
Whatcha chikichat                                  Verse 1
What’s the fuel called?
Fair-weather storms are in your head
Fair-weather storms are in your head

We fly balloons on this fuel called love
We fly balloons on this fuel called love           Chorus 1
We fly balloons on this fuel called
We fly balloons on this fuel called love

There’s a thing called
There’s a thing called
There’s a thing called
There’s a thing called                             Bridge
There’s a thing called
There’s a thing called
There’s a thing called
There’s a thing called

We fly balloons on this fuel called love
We fly balloons on this fuel called love
We fly balloons on this fuel called
We fly balloons on this fuel called love
We fly balloons on this fuel called love           Chorus 2 / Outro
We fly balloons on this fuel called love 
We fly balloons on this fuel called
We fly balloons on this fuel called love

|  /  : Slide up
|  h  : Hammer-on
|  +  : Harmonic
|  u  : Up stroke
|  d  : Down stroke
===============================================================================
            
Tabs too difficult? Try these video lessons and learn fast.




comments powered by Disqus
↑ Back to top | Tablatures and chords are parodies/interpretations of the original songs. You may use it for private study, scholarship, research or language learning purposes only