» » »

Two Step Twice Tabs (ver.1)

Artists:  A B C D E F G H I J K L M N O P Q R S T U V W X Y Z # 

Two Step Twice Tabs (ver.1)

Foals
Rating:
0/5 (0 votes)

Tabs too difficult? Try these video lessons and learn fast.
                			     SONG NAME Two Steps, Twice - Band Name FOALS

Tuning:EADGBE

Guitar 1,

e|-----13--------------------------------------------------------------------|
B|-15--------------15--------------------------------------------------------|
G|-------------12--------( REPEAT )------------------------------------------|
D|---------12----------------------------------------------------------------|
A|---------------------------------------------------------------------------|
E|---------------------------------------------------------------------------|

Guitar 2, comes in somewhere

e|-17--13--15--18--------------------------------------17--------------------|
B|-----------------15-----play for a bit and end on---------the stops--------|
G|---------------------------------------------------------------------------|
D|---------------------------------------------------------------------------|
A|---------------------------------------------------------------------------|
E|---------------------------------------------------------------------------|


Guitar 1,

e|-----13--------------------------------------------------------------------|
B|-15--------------15--------------------------------------------------------|
G|-------------12--------( REPEAT )------------------------------------------|
D|---------12----------------------------------------------------------------|
A|---------------------------------------------------------------------------|
E|---------------------------------------------------------------------------|

Guitar 2 

e|--17--13--15----------------------17--13--15--18---------------------------|
B|--------------15--then back to -------------------15-----------------------|
G|---------------------------------------------------------------------------|
D|---------------------------------------------------------------------------|
A|---------------------------------------------------------------------------|
E|---------------------------------------------------------------------------|

Guitar 1+2

e|---------------------------------------------------------------------------|
B|---------------------------------------------------------------------------|
G|--14--14--14--14--14--14--14--14-------------------------------------------|
D|---------------------------------------------------------------------------|
A|--12--12--12--12--12--12--12--12-------------------------------------------|
E|---------------------------------------------------------------------------|

Guitar 1

e|---------------------------------------------------------------------------|
B|---------------------------------------------------------------------------|
G|---------------------------------------------------------------------------|
D|--12----some funky rythem on that note-------------------------------------|
A|---------------------------------------------------------------------------|
E|---------------------------------------------------------------------------|

Guitar 2

e|---------------------------------------------------------------------------|
B|---------------------------------------------------------------------------|
G|---------------------------------------------------------------------------|
D|--0h12--0h3--0h5--0h7--0h12--0h3--0h5--0-----------------------------------|
A|---------------------------------------------------------------------------|
E|---------------------------------------------------------------------------|

ILL do the rest later


| /  slide up
| \  slide down
| h  hammer-on
| p  pull-off
| ~  vibrato
| +  harmonic
| x  Mute note
            
Tabs too difficult? Try these video lessons and learn fast.


comments powered by Disqus
↑ Back to top | Tablatures and chords are parodies/interpretations of the original songs. You may use it for private study, scholarship, research or language learning purposes only