» » »

Cassis Tabs (ver.1)

Artists:  A B C D E F G H I J K L M N O P Q R S T U V W X Y Z # 

Cassis Tabs (ver.1)

Gazette
Rating:
5/5 (16 votes)

Tabs too difficult? Try these video lessons and learn fast.
                (Intro)
Cassis by Gazette

Tuning   : Aoi     (Standard)
           Uruha   (Standard)

F.A.Q:

Q: Aoi plays different tab in the video, is it the same?
A: In the video, you can see that Aoi plays different
tab because he uses one-step down tuning. I'm lazy to tune 
my guitar, so I tabbed it out with the standard tuning instead.
-----------------------------------------------------------------------------------------
Q: Doesn’t the song stars with A string, instead of D, like this:

   e|---2----0---2|
   B|------0------|
   G|----------2--|
   D|-------------|
   A|-2-----------|
   E|-------------|

A: Nope, not at all, the A string comes from the bass. I have played
this song several times with my band and its sound 100% the same.

Here’s the tab, hope you like it, Gazette Rocks!!!

Guitar 1 (Acoustic Steel)  – Aoi
Guitar 2 (Distorted)       – Uruha

Intro:

Guitar 1 - Aoi
e|---2----0---2|---2---0----2|-------2-------|----------------|
B|------0------|----------0--|---2------2----|-------------3-2|
G|----------2--|-------------|-----2------2--|-----2---2------|
D|-2-----------|-0---0-------|-2------------2|-0-4---4---4----|
A|-------------|-------------|---------------|----------------|
E|-------------|-------------|---------------|----------------|

e|---2---0----2|---2---0----2|-------2-------|----------------|
B|-----0-------|----------0--|---2------2----|----------------|
G|----------2--|-------------|-----2------2--|----------------|
D|-2-----------|-0---0-------|-2------------2|----------------|
A|-------------|-------------|---------------|-0--------------|
E|-------------|-------------|---------------|----------------|

Main Riff:

Guitar 1
e|-2-2-2-2------------------------------|
B|-3-3-3-3-----------------7-7-7-7------|
G|-4-4-4-4-4-4-4-4-6-6-6-6-7-7-7-7------|
D|-4-4-4-4-5-5-5-5-7-7-7-7-7-7-7-7------| x4
A|-2-2-2-2-5-5-5-5-7-7-7-7-5-5-4-4------|
E|---------3-3-3-3-5-5-5-5--------------|
      Bm      G       A     D   Dmaj7

Guitar 2
e|-10------9----10----12-----10-----9---|
B|-10-----10----10----10-----10----10---|
G|-11-x16--9-x8-11-x8-11-x16-11-x8--9-x8|
D|--9-----11-----9-----9------9----11---| x4
A|--------------------------------------|
E|--------------------------------------|

I only got till this part, I’ll post the rest soon!

If there is any problem, please PM me…
            
Tabs too difficult? Try these video lessons and learn fast.




comments powered by Disqus
↑ Back to top | Tablatures and chords are parodies/interpretations of the original songs. You may use it for private study, scholarship, research or language learning purposes only