» » »

Misunderstanding Bass tabs (ver.2)

Artists:  A B C D E F G H I J K L M N O P Q R S T U V W X Y Z # 

Misunderstanding Bass tabs (ver.2)

Genesis
Rating:
0/5 (0 votes)

Tabs too difficult? Try these video lessons and learn fast.
                -----------------------------------------------------------------------------
                         MISUNDERSTANDING - Genesis
-----------------------------------------------------------------------------


Tuning: E A D G

INTRO                  x3
|----------/2-0|---------|------0---|
|:0-02-23-3----|--------:|----2---2-|
|:-------------|--------:|3--3-----3|
|--------------|---------|----------|

CHORUS 1
|---------/2-0|---------|---------/2-0-|-----020-|------0---|
|0-02-23-3----|:--------|0-02-23-3----:|----2---2|----2---2-|
|-------------|:------03|-------------:|---------|3--3-----3|
|-------------|---------|--------------|---------|----------|

|---------/2-0|---------|---------/2-0-|-----020-|------0---|
|0-02-23-3----|:--------|0-02-23-3----:|----2---2|----2-----|
|-------------|:------03|-------------:|---------|3--3----3-|
|-------------|---------|--------------|---------|---------3|

PRECHORUS 1
|------------|--------------|------------|--------------|-------------|
|---6~----6~-|---6/8\6---6--|---6~----6~-|---6/8\6---6--|---535---5~\-|
|------.-----|.-------.-----|.-----.-----|.-------.-----|.------------|
|4~4--44-4--4|4-4-----4-4-13|4-4--44-4--4|4-4-----4-4-44|3-3---3~3---3|

|-------------|------------|-------------|------------|------------|
|-------------|---5~----535|---3~\-------|---5~----5~-|.--.--------|
|.------------|.-----.-----|.-----3.-----|.-----.-----|0-00-0020024|
|1-11~11131431|3-3--33-3---|1-1----1-3141|3-3--33-3--3|------------|

CHORUS 2
|---------/2-0|------|---------/2-0|------------|---------/2-0|----0---|------0---|
|0-02-23-3----|------|0-02-23-3----|----5/75-75-|0-02-23-3----|-----20-|-----2----|
|-------------|----03|-------------|---7----7--7|-------------|-------3|---33---3-|
|-------------|------|-------------|------------|-------------|--------|---------3|

PRECHORUS 2
|------------|------------|------------|------------|------------|
|---6~----6--|---6~----6--|---6~----6--|---6~-------|---------535|
|.-----.-----|.-----------|.-----.-----|.-----------|.--.--.-----|
|4-4--44-4-13|4-4--4444-13|4-4--44-4-13|4-4--4444464|3-33-33-3---|

|------------|------------|------------|------------|--------------|
|---3~-------|---53555-53-|---333------|---53555-53-|--------------|
|.-----------|.----------5|.-----------|.----------5|-----000000024|
|1-1--1131431|3-3-----3---|1-1---131431|3-3-----3---|3/555---------|

OUTRO
|---------/2-0|---20-|---------/2-0|----020-|---------/2-0|-----------|
|0-02-23-3----|-----2|0-02-23-3----|---2---2|0-02-23-3----|-----------|
|-------------|------|-------------|--------|-------------|--0-2--3344|
|-------------|------|-------------|--------|-------------|-3---------|

                                                 x3
|---------/2-0|----------|----------/2-0|------------|
|0-02-23-3----|----------|:0-02-23-3----|-----------:|
|-------------|------0234|:-------------|--0-2--3344:|
|-------------|-----3----|--------------|-3----------|
            
Tabs too difficult? Try these video lessons and learn fast.




comments powered by Disqus
↑ Back to top | Tablatures and chords are parodies/interpretations of the original songs. You may use it for private study, scholarship, research or language learning purposes only