» » »

Breath Away From Heaven Chords (ver.1)

Artists:  A B C D E F G H I J K L M N O P Q R S T U V W X Y Z # 

Breath Away From Heaven Chords (ver.1)

George Harrison
Rating:
0/5 (0 votes)

Tabs too difficult? Try these video lessons and learn fast.
                ---------------------------------------------------------------------------
---------------------------------------------------------------------------
Tuning: Standard

Breath Away From Heaven (1987)
(Harrison)

---------------------------------------------------------------------------
CHORDS

      e-B-G-D-A-E
B 2-3-4-4-2-2
Em/D  0-0-0-0-x-x

---------------------------------------------------------------------------
INTRO
                   G                        D        G
e|----------------|----------------|----------------|--------------0-|
B|----------------|----------------|------------3---|-------------0-3|
G|----------4-2---|2-0-0-----------|----0-2-2---2---|2-0-0-------2---|
D|-------------520|2-0-0-2-2-----20|--2-0-0-0-------|2-0-0-2-2-------|
A|----------------|------2-2---02--|2-2-------------|------2-2-------|
E|----------------|----------------|----------------|----------------|
          D       [2/4]     G
e|----------------|--------|----------------|
B|0---------------|--3-----|----------------|
G|------0-2---2-2-|--2---0-|0---------4-2---|
D|--0-2-0-0---0-0-|------0-|0------------520|
A|----2-----------|--------|----------------|
E|--3-------------|--------|----------------|


---------------------------------------------------------------------------
INTRO
| G | G D | G | G D |2/4 D | G |


G
In another life
          D               G
I woke up dreaming with a sigh
G
As the morning light
             D             G
Was painting whispers of a joy


          G    B Em  Em/D Bm
And I was in a candlelit bed- room
G   B    Em     Em/D       Bm
  Enchanting beauty shimmering magically
        Am
Like an iridescent cloud
                          C
Being blown by a westerly wind, oooh

G                                  D
She can move your soul without you knowing
G                                 D            G
She can take the breath away from heaven, oooh

SOLO
| G | G D | D G | G | G D | D G |2/4 G |


          G        B  Em    Em/D   Bm
And I was captured by her loneliness
G   B   Em   Em/D    Bm
  A wounded tiger   on a willowy path
        Am
Like an opalescent moon all alone
                C
In the sky of a foreign land, oooh

G                                 D      
She can take the breath away from heaven

INSTRUMENTAL
| G | D | 

G                                  D
She can move your soul without you knowing
G                                 D 
She can take the breath away from heaven
G                          D
She is like an everlasting blossom
G                          D
She can take the breath away from heaven

[FADE]
            
Tabs too difficult? Try these video lessons and learn fast.




comments powered by Disqus
↑ Back to top | Tablatures and chords are parodies/interpretations of the original songs. You may use it for private study, scholarship, research or language learning purposes only