» » »

Devil's Radio Bass tabs (ver.1)

Artists:  A B C D E F G H I J K L M N O P Q R S T U V W X Y Z # 

Devil's Radio Bass tabs (ver.1)

George Harrison
Rating:
0/5 (0 votes)

Tabs too difficult? Try these video lessons and learn fast.
                DEVIL’S RADIO


By George Harrison


INTRO


G|---------------------------------|---------------------------------|
D|---------------------------------|---------------------------------|
A|-7---7---7---7---7---7---7---7---|-7---7---7---7---7---7---7---7---|
E|---------------------------------|---------------------------------|


G|---------------------------------|---------------------------------|
D|---------------------------------|---------------------------------|
A|-7---7---7---7---7---7---7---7---|-7---7---7---7---7---7---7---7---|
E|---------------------------------|---------------------------------|


CHORUS


G|---------------------------------|---------------------------------|
D|-9---9---9---9---9---9---7---5---|-------------------------5---7---|
A|---------------------------------|-7---7---7---7---7---7-----------|
E|---------------------------------|---------------------------------|


G|---------------------------------|---------------------------------|
D|-9---9---9---9---9---9---7---5---|---------------------------------|
A|---------------------------------|-7---7---7---7---7---7---7---7---|
E|---------------------------------|---------------------------------|


VERSE


G|---------------------------------|---------------------------------|
D|---------------------------------|---------------------------------|
A|-4-----------4---2-----------2---|---------------------------------|
E|---------------------------------|-0-----------0---0---------------|


G|---------------------------------|---------------------------------|
D|---------------------------------|---------------------------------|
A|-0-----------0---2-----------2---|---------------------------------|
E|---------------------------------|-0-----------0---0---------------|


G|---------------------------------|---------------------------------|
D|---------------------------------|---------------------------------|
A|-4-----------4---2-----------2---|---------------------------------|
E|---------------------------------|-4-----------4---4---------------|


G|---------------------------------|---------------------------------|
D|---------------------------------|---------------------------------|
A|-2-----------2---2---------------|---------------------------------|
E|---------------------------------|-0-----------0---0---------------|


VERSE


G|---------------------------------|---------------------------------|
D|---------------------------------|---------------------------------|
A|-4-----------4---2-----------2---|---------------------------------|
E|---------------------------------|-0-----------0---0---------------|


G|---------------------------------|---------------------------------|
D|---------------------------------|---------------------------------|
A|-0-----------0---2-----------2---|---------------------------------|
E|---------------------------------|-0-----------0---0---------------|


G|---------------------------------|---------------------------------|
D|---------------------------------|---------------------------------|
A|-4-----------4---2-----------2---|---------------------------------|
E|---------------------------------|-4-----------4---4---------------|


G|---------------------------------|---------------------------------|
D|---------------------------------|---------------------------------|
A|---------------------------------|-7-----------7---7---------------|
E|-7-----------7---7---------------|---------------------------------|


CHORUS


G|---------------------------------|---------------------------------|
D|-9---9---9---9---9---9---7---5---|-------------------------5---7---|
A|---------------------------------|-7---7---7---7---7---7-----------|
E|---------------------------------|---------------------------------|


G|---------------------------------|---------------------------------|
D|-9---9---9---9---9---9---7---5---|---------------------------------|
A|---------------------------------|-7---7---7---7---7---7---7---7---|
E|---------------------------------|---------------------------------|


VERSE


G|---------------------------------|---------------------------------|
D|---------------------------------|---------------------------------|
A|-4-----------4---2-----------2---|---------------------------------|
E|---------------------------------|-0-----------0---0-------0-------|


G|---------------------------------|---------------------------------|
D|---------------------------------|---------------------------------|
A|-0-----------0---2-----------2---|---------------------------------|
E|---------------------------------|-0-----------0---0---------------|


G|---------------------------------|---------------------------------|
D|---------------------------------|---------------------------------|
A|-4-----------4---2-----------2---|---------------------------------|
E|---------------------------------|-4-----------4---4---------------|


G|---------------------------------|---------------------------------|
D|---------------------------------|---------------------------------|
A|-2-----------2---2---------------|---------------------------------|
E|---------------------------------|-0-----------0---0---------------|


VERSE


G|---------------------------------|---------------------------------|
D|---------------------------------|---------------------------------|
A|-4-----------4---2-----------2---|---------------------------------|
E|---------------------------------|-0---0-------0---0---0-------0---|


G|---------------------------------|---------------------------------|
D|---------------------------------|---------------------------------|
A|-0-----------0---2-----------2---|---------------------------------|
E|---------------------------------|-0-----------0---0---0-----------|


G|---------------------------------|---------------------------------|
D|---------------------------------|---------------------------------|
A|-4-----------4---2-----------2---|---------------------------------|
E|---------------------------------|-4-----------4---4---------------|


G|---------------------------------|---------------------------------|
D|---------------------------------|---------------------------------|
A|---------------------------------|-7-----------7---7---------------|
E|-7-----------7---7---7-------7---|---------------------------------|


CHORUS


G|---------------------------------|---------------------------------|
D|-9---9---9---9---9---9---7---5---|-------------------------5---7---|
A|---------------------------------|-7---7---7---7---7---7-----------|
E|---------------------------------|---------------------------------|


G|---------------------------------|---------------------------------|
D|-9---9---9---9---9---9---7---5---|-------------------------5---7---|
A|---------------------------------|-7---7---7---7---7---7-----------|
E|---------------------------------|---------------------------------|


G|---------------------------------|---------------------------------|
D|-9---9---9---9---9---9---7---5---|-------------------------5---7---|
A|---------------------------------|-7---7---7---7---7---7-----------|
E|---------------------------------|---------------------------------|


G|---------------------------------|---------------------------------|
D|-9---9---9---9---9---9---7---5---|---------------------------------|
A|---------------------------------|-7---7---7---7---7---7---7---7---|
E|---------------------------------|---------------------------------|


BRIDGE


G|---------------------------------|---------------------------------|
D|-7-----------7---7-----------7---|-7-----------7---7---7-----------|
A|---------------------------------|---------------------------------|
E|---------------------------------|---------------------------------|


G|---------------------------------|---------------------------------|
D|---------------------------------|---------------------------------|
A|-7-----------7---7-----------7---|-7-----------7---7---------------|
E|---------------------------------|---------------------------------|


G|---------------------------------|---------------------------------|
D|-7-----------7---7-----------7---|-7-----------7---7-----------7---|
A|---------------------------------|---------------------------------|
E|---------------------------------|---------------------------------|


G|---------------------------------|---------------------------------|
D|-9-----------9---9-----------9---|-9-------------------------------|
A|---------------------------------|---------------------------------|
E|---------------------------------|---------------------------------|


VERSE


G|---------------------------------|---------------------------------|
D|---------------------------------|---------------------------------|
A|-4-----------4---2-----------2---|---------------------------------|
E|---------------------------------|-0-----------0---0---0-------0---|


G|---------------------------------|---------------------------------|
D|---------------------------------|---------------------------------|
A|-0-----------0---2-----------2---|---------------------------------|
E|---------------------------------|-0-----------0---0---------------|


G|---------------------------------|---------------------------------|
D|---------------------------------|---------------------------------|
A|-4-----------4---2-----------2---|---------------------------------|
E|---------------------------------|-4-----------4---4---------------|


G|---------------------------------|---------------------------------|
D|---------------------------------|---------------------------------|
A|-2-----------2---2---------------|---------------------------------|
E|---------------------------------|-0-----------0---0---------------|


GUITAR SOLO


G|---------------------------------|---------------------------------|
D|---------------------------------|---------------------------------|
A|-4-----------4---2-----------2---|---------------------------------|
E|---------------------------------|-0-----------0---0-----------0---|


G|---------------------------------|---------------------------------|
D|---------------------------------|---------------------------------|
A|-0-----------0---2-----------2---|---------------------------------|
E|---------------------------------|-0-----------0---0---------------|


G|---------------------------------|---------------------------------|
D|---------------------------------|---------------------------------|
A|-4-----------4---2-----------2---|---------------------------------|
E|---------------------------------|-4-----------4---4---------------|


G|---------------------------------|---------------------------------|
D|---------------------------------|---------------------------------|
A|-2-----------2---2---------------|---------------------------------|
E|---------------------------------|-0-----------0---0-------0-------|


CHORUS


G|---------------------------------|---------------------------------|
D|-9---9---9---9---9---9---7---5---|-------------------------5---7---|
A|---------------------------------|---------------------------------|
E|---------------------------------|-0---0---0---0---0---0-----------|


G|---------------------------------|---------------------------------|
D|-9---9---9---9---9---9---7---5---|---------------------------------|
A|---------------------------------|---------------------------------|
E|---------------------------------|-0---0---0---0---0---0---0---0---|


G|---------------------------------|
D|---------------------------------|
A|---------------------------------|
E|-0---0---0---0---0---0---0---0---|


BRIDGE


G|---------------------------------|---------------------------------|
D|-7---7-------7---7---7-------7---|-7---7-------7---7---7-------7---|
A|---------------------------------|---------------------------------|
E|---------------------------------|---------------------------------|


G|---------------------------------|---------------------------------|
D|---------------------------------|---------------------------------|
A|-7---7-------7---7---7-------7---|-7-----------7---7---7-----------|
E|---------------------------------|---------------------------------|


G|---------------------------------|---------------------------------|
D|-7-----------7---7---7-------7---|-7-----------7---7---7-------7---|
A|---------------------------------|---------------------------------|
E|---------------------------------|---------------------------------|


G|---------------------------------|---------------------------------|
D|-9---9---9---9---9---9---9---9---|-9-------------------------------|
A|---------------------------------|---------------------------------|
E|---------------------------------|---------------------------------|


VERSE


G|---------------------------------|---------------------------------|
D|---------------------------------|---------------------------------|
A|-4-----------4---2-----------2---|---------------------------------|
E|---------------------------------|-0-----------0---0-------0-------|


G|---------------------------------|---------------------------------|
D|---------------------------------|---------------------------------|
A|-0-----------0---2-----------2---|---------------------------------|
E|---------------------------------|-0-----------0---0---------------|


G|---------------------------------|---------------------------------|
D|---------------------------------|---------------------------------|
A|-4-----------4---2-----------2---|---------------------------------|
E|---------------------------------|-4-----------4---4---------------|


G|---------------------------------|---------------------------------|
D|---------------------------------|---------------------------------|
A|---------------------------------|-7-----------7---7-------7-------|
E|-7-----------7---7-----------7---|---------------------------------|


VERSE


G|---------------------------------|---------------------------------|
D|---------------------------------|---------------------------------|
A|-4-----------4---2-----------2---|---------------------------------|
E|---------------------------------|-0-----------0---0---------------|


G|---------------------------------|---------------------------------|
D|---------------------------------|---------------------------------|
A|-0-----------0---2-----------2---|---------------------------------|
E|---------------------------------|-0-----------0---0---------------|


G|---------------------------------|---------------------------------|
D|---------------------------------|---------------------------------|
A|-4-----------4---2-----------2---|---------------------------------|
E|---------------------------------|-4-----------4---4---------------|


G|---------------------------------|---------------------------------|
D|---------------------------------|---------------------------------|
A|---------------------------------|-7-----------7---7---7-----------|
E|-7-----------7---7---7-------7---|---------------------------------|


CHORUS


G|---------------------------------|---------------------------------|
D|-9---9---9---9---9---9---7---5---|-------------------------5---7---|
A|---------------------------------|-7---7---7---7---7---7-----------|
E|---------------------------------|---------------------------------|


G|---------------------------------|---------------------------------|
D|-9---9---9---9---9---9---7---5---|-------------------------5---7---|
A|---------------------------------|-7---7---7---7---7---7-----------|
E|---------------------------------|---------------------------------|


G|---------------------------------|---------------------------------|
D|-9---9---9---9---9---9---7---5---|-------------------------5---7---|
A|---------------------------------|-7---7---7---7---7---7-----------|
E|---------------------------------|---------------------------------|


G|---------------------------------|---------------------------------|
D|-9---9---9---9---9---9---7---5---|-------------------------5---7---|
A|---------------------------------|-7---7---7---7---7---7-----------|
E|---------------------------------|---------------------------------|


OUTRO


G|---------------------------------|---------------------------------|
D|-9---9---9---9---9---9---7---5---|-------------------------5---7---|
A|---------------------------------|-7---7---7---7-------------------|
E|---------------------------------|-----------------0---0-----------|


G|---------------------------------|---------------------------------|
D|-9---9---9---9---9---9---7---5---|---------------------------------|
A|---------------------------------|-7---7---7---7---7---7---7---7---|
E|---------------------------------|---------------------------------|


G|---------------------------------|---------------------------------|
D|---------------------------------|---------------------------------|
A|-7---7---7---7---7---7---7---7---|-7-------------------------------|
E|---------------------------------|---------------------------------|
            
Tabs too difficult? Try these video lessons and learn fast.




comments powered by Disqus
↑ Back to top | Tablatures and chords are parodies/interpretations of the original songs. You may use it for private study, scholarship, research or language learning purposes only