» » »

Give Me Love Tabs (ver.1)

Artists:  A B C D E F G H I J K L M N O P Q R S T U V W X Y Z # 

Give Me Love Tabs (ver.1)

George Harrison
Rating:
0/5 (0 votes)

Tabs too difficult? Try these video lessons and learn fast.
                Estos son los arreglos del concert for George

El piano hace:
E|-----------------------------||
B|-10----10-10--11-10-------10-||
G|--------------------12-10----||
A|-----------------------------||
E|-----------------------------||
                    
Este es el solo q hacen en el concert for George
E||-9-9-9-9-8---------8----8----10-8----|----8----8----15-13----------|
B||-----------11-9-10---10---10------10-|-10---10---10-------15-13/10-|
G||-------------------------------------|-----------------------------|
D||-------------------------------------|-----------------------------|
A||-------------------------------------|-----------------------------|
E||-------------------------------------|-----------------------------|
                                  
E|---8----8----11-10-8-------|----------15-13----|----------17-15----||
B|-10--10---10---------10-11-|-15-15-15-------15-|-17-17-17-------17-||
G|---------------------------|-------------------|-------------------||
D|---------------------------|-------------------|-------------------||
A|---------------------------|-------------------|-------------------||
E|---------------------------|-------------------|-------------------||

El final:
E||-9-9-9-9-8---------8----8----10-8----|----8----8----15-13----------|
B||-----------11-9-10---10---10------10-|-10---10---10-------15-13/10-|
G||-------------------------------------|-----------------------------|
D||-------------------------------------|-----------------------------|
A||-------------------------------------|-----------------------------|
E||-------------------------------------|-----------------------------|

E|---8----8----11-10-8-------||
B|-10--10---10---------10-11-||
G|---------------------------||
A|---------------------------||
E|---------------------------||                                  
            
Tabs too difficult? Try these video lessons and learn fast.




comments powered by Disqus
↑ Back to top | Tablatures and chords are parodies/interpretations of the original songs. You may use it for private study, scholarship, research or language learning purposes only