» » »

All The Time Tabs (ver.7)

Artists:  A B C D E F G H I J K L M N O P Q R S T U V W X Y Z # 

All The Time Tabs (ver.7)

Green Day
Rating:
0/5 (0 votes)

Tabs too difficult? Try these video lessons and learn fast.
                


---------------------------------------------------------------------------- 
All the time
----------------------------------------------------------------------------
Intro
E|-------------|-------------|-------------|-------------|-------------|
B|-------------|-------------|-------------|-------------|-------------|
G|-9-9--7------|-9-9--7------|-9-9--7------|-9-9--7------|-9-9--7------|
D|-9-9--7--7-x-|-9-9--7--7-x-|-9-9--7--7-x-|-9-9--7--7-x-|-9-9--7--7-x-|
A|-7-7--5--7-x-|-7-7--5--7-x-|-7-7--5--7-x-|-7-7--5--7-x-|-7-7--5--7-x-|
E|---------5-x-|---------5-x-|---------5-x-|---------5-x-|---------5-x-|

E|-----------|-----------|-----------|-----------|---------------------|
B|-----------|-----------|-----------|-----------|---------------------|
G|-9-9-7-----|-9-9-7-----|-9-9-7-----|-9-9-7-----|-9-9-9-9-9-9-9-9-----|
D|-9-9-7-7-x-|-9-9-7-7-x-|-9-9-7-7-x-|-9-9-7-7-x-|-9-9-9-9-9-9-9-9-----|
A|-7-7-5-7-x-|-7-7-5-7-x-|-7-7-5-7-x-|-7-7-5-7-x-|-7-7-7-7-7-7-7-7-----|
E|-------5-x-|-------5-x-|-------5-x-|-------5-x-|---------------------|

Verse
E|----------------------------|----------------------------------------|
B|--------------------2-2-2---|--------------------2-2-2---------------|
G|------2-2-2---------2-2-2---|------2-2-2---------2-2-2---------------|
D|-6/7--2-2-2--5-5-5--0-0-0-x-|-6/7--2-2-2--5-5-5--0-0-0-x-------------|
A|-6/7--0-0-0--5-5-5--------x-|-6/7--0-0-0--5-5-5--------x-------------|
E|-4/5---------3-3-5--------x-|-4/5---------3-3-5--------x-------------|

Chorus
E|----------------------------|----------------------------------------|
B|----------------------------|----------------------------------------|
G|-2-2--6-7-6--------4-5-5-5--|-2-2--6-7-6--------4-5-5-5--------------|
D|-2-2--6-7-6-7--5-5-4-5-5-5--|-2-2--6-7-6-7--5-5-4-5-5-5--------------|
A|-0-0--4-5-4-7--5-5-2-3-3-3-x|-0-0--4-5-4-7--5-5-2-3-3-3-x------------|
E|------------5--3-3---------x|------------5--3-3---------x------------|

Outro
E|-------------|-------------|-------------|-------------|-------------|
B|-------------|-------------|-------------|-------------|-------------|
G|-9-9--7------|-9-9--7------|-9-9--7------|-9-9--7------|-9-9--7------|
D|-9-9--7--7-x-|-9-9--7--7-x-|-9-9--7--7-x-|-9-9--7--7-x-|-9-9--7--7-x-|
A|-7-7--5--7-x-|-7-7--5--7-x-|-7-7--5--7-x-|-7-7--5--7-x-|-7-7--5--7-x-|
E|---------5-x-|---------5-x-|---------5-x-|---------5-x-|---------5-x-|

E|-----------|-----------|---------------------|-----------------------|
B|-----------|-----------|---------------------|-----------------------|
G|-9-9-7-----|-9-9-7-----|-9-9-9-9-9-9-9-9-----|-----------------------|
D|-9-9-7-7-x-|-9-9-7-7-x-|-9-9-9-9-9-9-9-9-----|-6/7---7---------------|
A|-7-7-5-7-x-|-7-7-5-7-x-|-7-7-7-7-7-7-7-7-----|-6/7---7---------------|
E|-------5-x-|-------5-x-|---------------------|-4/5---5---------------|

Order

Intro
Verse x3
Intro
Verse x2
Intro
Verse x2
Chorus x2
Verse x2
Outro
            
Tabs too difficult? Try these video lessons and learn fast.




comments powered by Disqus
↑ Back to top | Tablatures and chords are parodies/interpretations of the original songs. You may use it for private study, scholarship, research or language learning purposes only