» » »

Bab's Uvula Who? Bass tabs (ver.5)

Artists:  A B C D E F G H I J K L M N O P Q R S T U V W X Y Z # 

Bab's Uvula Who? Bass tabs (ver.5)

Green Day
Rating:
0/5 (0 votes)

Tabs too difficult? Try these video lessons and learn fast.
                G:--------------------------|
D:--------------------------|
A:-------------------2/12\2-|
E:-7~~~-5~~~-2~~~~~~--------|

Verse
G:---4---4---4---4-------4---|
D:---------------------2-----|
A:-2---2---2---2---0-4-----0-|
E:---------------------------|

Chorus
G:------------4-------4-|
D:------------------2---|
A:-2-222222-2---0-4-----|
E:----------------------|

Final Verse
G:------------------------------4-------4---|
D:------------------------------------2-----|
A:-2-222222-2-222222-2-222222-2---0-4-----0-|
E:------------------------------------------|

Outro
G:---4---4-----|
D:-------------|
A:-2---2---2-2-|
E:-------------|

STRUCTURE
Intro
Verse x6
Chorus x4
Verse x6
Chorus x4
Final Verse x6
Chorus x4
Outro
            
Tabs too difficult? Try these video lessons and learn fast.




comments powered by Disqus
↑ Back to top | Tablatures and chords are parodies/interpretations of the original songs. You may use it for private study, scholarship, research or language learning purposes only