» » »

Christians Inferno Tabs (ver.4)

Artists:  A B C D E F G H I J K L M N O P Q R S T U V W X Y Z # 

Christians Inferno Tabs (ver.4)

Green Day
Rating:
0/5 (0 votes)

Tabs too difficult? Try these video lessons and learn fast.
                Band: Green Day

Sorry about the spacing. I screwed up while I was tabbing it.
If you liked this, then go check out my tabs for Murder City (Version 5) 
and if you play bass, check out the tab for Viva La Gloria Little Girl (Version 3).

Main Bass Riff/Intro/Verse:
G:-------------------------------------------------------------------------|
D:-------------------------------------------------------------------------|
A:-------------------------------9-10-10-10-10-10-10-10-10-----------------|
E:-7-7-7-7-7-7-7-7-7-7-7-7-7-7-7---------------------------8-8-8-8-8-8-8-8-|

Pre-Chorus:
e:-------------------------|
B:-------------------------|
G:-------------------------|
D:-7--7--7--7--7--7--7--7--|
A:-7--7--7--7--7--7--7--7--|
E:-5--5--5--5--5--5--5--5--|

Chorus:
e:-----------------------------------------------------------------|
B:-----------------------------------------------------------------|
G:-7-7-7-7-7-7-7-7-----------------7-7-7-7-7-7-7-7-----------------|
D:-7-7-7-7-7-7-7-7-7-7-7-7-7-7-7-7-7-7-7-7-7-7-7-7-5-5-5-5-5-5-5-5-|
A:-5-5-5-5-5-5-5-5-7-7-7-7-7-7-7-7-5-5-5-5-5-5-5-5-5-5-5-5-5-5-5-5-|
E:-----------------5-5-5-5-5-5-5-5-----------------3-3-3-3-3-3-3-3-|

e:-----------------------------------------------------------------|
B:-----------------------------------------------------------------|
G:-7-7-7-7-7-7-7-7-----------------7-7-7-7-7-7-7-7-----------------|
D:-7-7-7-7-7-7-7-7-7-7-7-7-7-7-7-7-7-7-7-7-7-7-7-7-5-5-5-5-5-5-5-5-|
A:-5-5-5-5-5-5-5-5-7-7-7-7-7-7-7-7-5-5-5-5-5-5-5-5-5-5-5-5-5-5-5-5-|
E:-----------------5-5-5-5-5-5-5-5-----------------3-3-3-3-3-3-3-3-|

e:-----------------------------------------------------------------|
B:-----------------------------------------------------------------|
G:-7-7-7-7-7-7-7-7-----------------7-7-7-7-7-7-7-7-----------------|
D:-7-7-7-7-7-7-7-7-7-7-7-7-7-7-7-7-7-7-7-7-7-7-7-7-5-5-5-5-5-5-5-5-|
A:-5-5-5-5-5-5-5-5-7-7-7-7-7-7-7-7-5-5-5-5-5-5-5-5-5-5-5-5-5-5-5-5-|
E:-----------------5-5-5-5-5-5-5-5-----------------3-3-3-3-3-3-3-3-|

e:-----------------------------------------------------------------|
B:-----------------------------------------------------------------|
G:-7-7-7-7-7-7-7-7-----------------7-7-7-7-7-7-7-7-----------------|
D:-7-7-7-7-7-7-7-7-7-7-7-7-7-7-7-7-7-7-7-7-7-7-7-7-5-5-5-5-5-5-5-5-|
A:-5-5-5-5-5-5-5-5-7-7-7-7-7-7-7-7-5-5-5-5-5-5-5-5-5-5-5-5-5-5-5-5-|
E:-----------------5-5-5-5-5-5-5-5-----------------3-3-3-3-3-3-3-3-|

Post-Chorus:
e:-----------------------------------------------------------------|
B:-----------------------------------------------------------------|
G:-4-4-4-4-4-4-4-4-4-4-4-4-4-4-4-4-----------------5-5-5-5-5-5-5-5-|
D:-4-4-4-4-4-4-4-4-4-4-4-4-4-4-4-4-5-5-5-5-5-5-5-5-5-5-5-5-5-5-5-5-|
A:-2-2-2-2-2-2-2-2-2-2-2-2-2-2-2-2-5-5-5-5-5-5-5-5-3-3-3-3-3-3-3-3-|
E:---------------------------------3-3-3-3-3-3-3-3-----------------|

e:-----------------------------------------------------------------|
B:-----------------------------------------------------------------|
G:-4-4-4-4-4-4-4-4-4-4-4-4-4-4-4-4-----------------5-5-5-5-5-5-5-5-|
D:-4-4-4-4-4-4-4-4-4-4-4-4-4-4-4-4-5-5-5-5-5-5-5-5-5-5-5-5-5-5-5-5-|
A:-2-2-2-2-2-2-2-2-2-2-2-2-2-2-2-2-5-5-5-5-5-5-5-5-3-3-3-3-3-3-3-3-|
E:---------------------------------3-3-3-3-3-3-3-3-----------------|

Solo
e:----------------------------------------------------------------|
B:----12-12-------12-12-------12-12-------12-12-------13-13-------|
G:----------11-11-------11-11-------11-11-------11-11-------12-12-|
D:----------------------------------------------------------------|
A:----------------------------------------------------------------|
E:-12\------------------------------------------------------------|

-------------------------------------|
13-13-15-15-12-12--------12-12-------|
-------------------11-11-------11-11-|
-------------------------------------|
-------------------------------------|
-------------------------------------|

e:--------------------------------------------------------------------------------------------------|
B:-12-12-------12-12-------12-12-------12-12-------13-13-------13-13-15-15-12-12-------12-12--------|
G:-------11-11-------11-11-------11-11-------11-11-------12-12---------------------11-11-------11-11|
D:--------------------------------------------------------------------------------------------------|
A:--------------------------------------------------------------------------------------------------|
E:--------------------------------------------------------------------------------------------------|

e:--------------------------------------------------------------------------------------------------|
B:-12-12-------12-12-------12-12-------12-12-------13-13-------13-13-15-15-12-12-------12-12--------|
G:-------11-11-------11-11-------11-11-------11-11-------12-12---------------------11-11-------11-11|
D:--------------------------------------------------------------------------------------------------|
A:--------------------------------------------------------------------------------------------------|
E:--------------------------------------------------------------------------------------------------|

e:-----------------------------------------------------------------------------|
B:-12-12-------12-12-------12-12-------12-12-------13-13-------13-13-15-15-12b-|
G:-------11-11-------11-11-------11-11-------11-11-------12-12-----------------|
D:-----------------------------------------------------------------------------|
A:-----------------------------------------------------------------------------|
E:-----------------------------------------------------------------------------|

Outro:
e:-------------------------------------------------|
B:-------------------------------------------------|
G:-12-12-12-12-12-12-12-12-10-10-10-10-10-10-10-10-|
D:-12-12-12-12-12-12-12-12-10-10-10-10-10-10-10-10-|
A:-10-10-10-10-10-10-10-10-8--8--8--8--8--8--8--8--|
E:-------------------------------------------------|

e:-------------------------------------------------|
B:-------------------------------------------------|
G:-12-12-12-12-12-12-12-12-10-10-10-10-10-10-10-10-|
D:-12-12-12-12-12-12-12-12-10-10-10-10-10-10-10-10-|
A:-10-10-10-10-10-10-10-10-8--8--8--8--8--8--8--8--|
E:-------------------------------------------------|

e:-------------------------------------------------|
B:-------------------------------------------------|
G:-12-12-12-12-12-12-12-12-10-10-10-10-10-10-10-10-|
D:-12-12-12-12-12-12-12-12-10-10-10-10-10-10-10-10-|
A:-10-10-10-10-10-10-10-10-8--8--8--8--8--8--8--8--|
E:-------------------------------------------------|

e:-------------------------------------------------|
B:-------------------------------------------------|
G:-12-12-12-12-12-12-12-12-10-10-10-10-10-10-10-10-|
D:-12-12-12-12-12-12-12-12-10-10-10-10-10-10-10-10-|
A:-10-10-10-10-10-10-10-10-8--8--8--8--8--8--8--8--|
E:-------------------------------------------------|

e:--------------------------------------|
B:--------------------------------------|
G:-12-12-10-10-12-12-10-10-4-Delay-into-|
D:-12-12-10-10-12-12-10-10-4-Last-Night-|
A:-10-10--8--8-10-10--8--8-2--On-Earth--|
E:--------------------------------------|

Order:
Intro
Verse
Pre-Chorus
Chorus
Post-Chorus
Verse
Pre-Chorus
Chorus
Post-Chorus
Solo
Chorus
Outro

SlyFooX Out!
            
Tabs too difficult? Try these video lessons and learn fast.




comments powered by Disqus
↑ Back to top | Tablatures and chords are parodies/interpretations of the original songs. You may use it for private study, scholarship, research or language learning purposes only