» » »

Cigarettes And Valentines Tabs (ver.1)

Artists:  A B C D E F G H I J K L M N O P Q R S T U V W X Y Z # 

Cigarettes And Valentines Tabs (ver.1)

Green Day
Rating:
0/5 (0 votes)

Tabs too difficult? Try these video lessons and learn fast.
                Hello! Hope you like the new song of green day cigarettes and valentines cost me a 
lot of work it out but it was worth

Intro:
e|--------------------------------------------------------------------------|
B|--------------------------------------------------------------------------|
G|----------------9-99----------------9-99----------------9-99--------------|
D|--4-4-444--999--9-99--4-4-444--999--9-99--4-4-444--999--9-99--------------|
A|--4-4-444--999--7-77--4-4-444--999--7-77--4-4-444--999--7-77--------------|
E|--2-2-222--777--------2-2-222--777--------2-2-222--777--------------------|

e|--------------------------------------------------------------------------|
B|--------------------------------------------------------------------------|
G|--6666666666666666--------------------------------------------------------|
D|--6666666666666666--2-2-4~----2-2-4\--------------------------------------|
A|--4444444444444444--2-2-4~----2-2-4\--------------------------------------|
E|--------------------0-0-2~----0-0-2\--------------------------------------|

Bass/ Guitar:
e|--------------------------------------------------------------------------|
B|--------------------------------------------------------------------------|
G|------------------------------------------------------------6-6-6---------|
D|-----------------------------------------------444~--2-2-2--6-6-6---------|
A|--9999999999999999-77777777-9999999999999999---444~--2-2-2--4-4-4---------|
E|-----------------------------------------------222~--0-0-0----------------|

Verse:
e|--------------------------------------------------------------------------|
B|--------------------------------------------------------------------------|
G|------------------------------------------------------------6-6-666-------|
D|--4-4-444-4-4-444-2-2-222-4-4-444--4-4-444-4-4-444--2-2-222-6-6-666--(x3)-|
A|--4-4-444-4-4-444-2-2-222-4-4-444--4-4-444-4-4-444--2-2-222-4-4-444-------|
E|--2-2-222-2-2-222-0-0-000-2-2-222--2-2-222-2-2-222--0-0-000---------------|

e|--------------------------------------------------------------------------|
B|--------------------------------------------------------------------------|
G|----------------9-99----------------9-99----------------9-99--------------|
D|--4-4-444--999--x-xx--4-4-444--999--x-xx--4-4-444--999--x-xx--(x3)--------|
A|--4-4-444--xxx--7-77--4-4-444--xxx--7-77--4-4-444--xxx--7-77--------------|
E|--2-2-222--777--------2-2-222--777--------2-2-222--777--------------------|

e|--------------------------------------------------------------------------|
B|--------------------------------------------------------------------------|
G|--6666666666666666--------------------------------------------------------|
D|--6666666666666666--------------------------------------------------------|
A|--4444444444444444--------------------------------------------------------|
E|--------------------------------------------------------------------------|

Verse 2:
e|--------------------------------------------------------------------------|
B|--------------------------------------------------------------------------|
G|------------------------------------------------------------6-6-666-------|
D|--4-4-444-4-4-444-2-2-222-4-4-444--4-4-444-4-4-444--2-2-222-6-6-666--(x2)-|
A|--4-4-444-4-4-444-2-2-222-4-4-444--4-4-444-4-4-444--2-2-222-4-4-444-------|
E|--2-2-222-2-2-222-0-0-000-2-2-222--2-2-222-2-2-222--0-0-000---------------|


e|--------------------------------------------------------------------------|
B|--------------------------------------------------------------------------|
G|--4-4-------------------------------6666666666666666----------------------|
D|--4-4--222--4-4-444--------2-2-222--6666666666666666----------------------|
A|--2-2--222--4-4-444--(x3)--2-2-222--4444444444444444----------------------|
E|-------000--2-2-222--------0-0-000----------------------------------------|

Solo (Jason White, Guitar 2)
e|------------------------------------------------------------------------------|
B|--11---11--11-11-11--11--11-12-11--9--9h11-11---------------------------------|
G|--11---11--11-11-11--11--11-11-11--11-11---11--9-8-6-4-11-11-11-11-11-11-11-11-|
D|-----------------------------------------------x-x-x-x-x--x--x--x--x--x--x--x--|
A|-----------------------------------------------7-6-4-2-9--9--9--9--9--9--9--9--|
E|-------------------------------------------------------------------------------|

e|-------------------------------------------------------------------------------|
B|--11---11--11-11-11--11--11-12-11--9--9h11-11----------------------------------|
G|--11---11--11-11-11--11--11-11-11--11-11---11--9---9--9-9-9-10---13------------|
D|-----------------------------------------------x---x--x-x-x-x----x-------------|  Solo x2
A|-----------------------------------------------7---7--7-7-7-8----11------------|
E|-------------------------------------------------------------------------------|

During Solo (Billie Joe Guitar 1)
e|--------------------------------------------------------------------------|
B|--------------------------------------------------------------------------|
G|------------------------------------------------------------6-6-666-------|
D|--4-4-444-4-4-444-2-2-222-4-4-444--4-4-444-4-4-444--2-2-222-6-6-666--(x2)-|
A|--4-4-444-4-4-444-2-2-222-4-4-444--4-4-444-4-4-444--2-2-222-4-4-444-------|
E|--2-2-222-2-2-222-0-0-000-2-2-222--2-2-222-2-2-222--0-0-000---------------|

You Play This Twice:
e|--------------------------------------------------------------------------|
B|--------------------------------------------------------------------------|
G|--4-4-------------------------------6666666666666666----------------------|
D|--4-4--222--4-4-444--------2-2-222--6666666666666666----------------------|
A|--2-2--222--4-4-444--(x3)--2-2-222--4444444444444444----------------------|
E|-------000--2-2-222--------0-0-000----------------------------------------|

Outro:
e|--------------------------------------------------------------------------|
B|--------------------------------------------------------------------------|
G|----------------9-99----------------9-99----------------9-99--------------|
D|--4-4-444--999--9-99--4-4-444--999--9-99--4-4-444--999--9-99--------------|
A|--4-4-444--999--7-77--4-4-444--999--7-77--4-4-444--999--7-77--------------|
E|--2-2-222--777--------2-2-222--777--------2-2-222--777--------------------|

e|--------------------------------------------------------------------------|
B|--------------------------------------------------------------------------|
G|--6666666666666666--------------------------------------------------------|
D|--6666666666666666--2-2-4~----2-2-4\--------------------------------------|
A|--4444444444444444--2-2-4~----2-2-4\--------------------------------------|
E|--------------------0-0-2~----0-0-2\--------------------------------------|


| /   slide up
| \   slide down
| h   hammer-on
| p   pull-off
| ~   vibrato
| +   harmonic
| x   Mute note
| b   Bend
| pb  Pre-bend
| br  Bend release
| pbr Pre-bend release
| brb Bend release bend
            
Tabs too difficult? Try these video lessons and learn fast.


comments powered by Disqus
↑ Back to top | Tablatures and chords are parodies/interpretations of the original songs. You may use it for private study, scholarship, research or language learning purposes only