» » »

Dead Beat Holiday Tabs (ver.6)

Artists:  A B C D E F G H I J K L M N O P Q R S T U V W X Y Z # 

Dead Beat Holiday Tabs (ver.6)

Green Day
Rating:
0/5 (0 votes)

Tabs too difficult? Try these video lessons and learn fast.
                "Green Day Deadbeat holiday
Tuning: Standard
PM * = you palm mute that chord


Verse 1 
e|--------------------------------------------------|
B|--------------------------------------------------|
G|----7-----5--------5--7------7-----5--------5--7--|
D|-5--7--5--5--5--2--5--7---5--7--5--5--5--2--5--7--|
A|-5--5--5--3--5--2--3--5---5--5--5--3--5--2--3--5--|
E|-3-----3-----3--0---------3-----3-----3--0--------|

Pre Chorus 
e|---------------------------------------------------------------------------|
B|---------------------------------------------------------------------------|
G|-4----4-5----5------5----------------------4-4-4-4-4-4-4-4-5-5-5-5-5-5-5-5-|
D|-4----4-5----5-5----5-5----2-2-2-2-2-2-2-2-4-4-4-4-4-4-4-4-5-5-5-5-5-5-5-5-|
A|-2----2-3----3-5----3-5----2-2-2-2-2-2-2-2-2-2-2-2-2-2-2-2-3-3-3-3-3-3-3-3-|
E|---------------3------3----0-0-0-0-0-0-0-0---------------------------------|
  PM                             * * * * * * * * * * * * * * * * * * * * * *

e|---------------------------------------------|
B|------------------------8--8--7--------------|
G|7-7-7-7-7-7-7-7---5--5-----------------------|
D|7-7-7-7-7-7-7-7------------------------------|
A|5-5-5-5-5-5-5-5------------------------------|
E|---------------------------------------------|

Chorus
e|---------------------------------------------------------------------------|
B|---------------------------------------------------------------------------|
G|-------------4-4-4-4-4-4-4-4-5-5-5-5-5-5-----------------5-5-5-5-5-5-------|
D|-5-5-5-5-5-5-4-4-4-4-4-4-4-4-5-5-5-5-5-5-5-5-5-5-5-5-5-5-5-5-5-5-5-5-5-5-5-|
A|-5-5-5-5-5-5-2-2-2-2-2-2-2-2-3-3-3-3-3-3-5-5-5-5-5-5-5-5-3-3-3-3-3-3-5-5-5-|
E|-3-3-3-3-3-3-----------------------------3-3-3-3-3-3-3-3-------------3-3-3-|

e|------------------------------------------------------------------|
B|------------------------------------------------------------------|
G|-----------------------7-7-7-7-7-7-7-7----------------------------|
D|-5-5-5-5-5-3-3-3-3-3-3-7-7-7-7-7-7-7-7----------------------------|
A|-5-5-5-5-5-3-3-3-3-3-3-5-5-5-5-5-5-5-5----------------------------|
E|-3-3-3-3-3-1-1-1-1-1-1--------------------------------------------|

Verse Note: im not 100% on the pm here just play what sounds right
e|---------------------------------------------------------------------------|
B|---------------------------------------------------------------------------|
G|---------------7-7-7-7-7-7-7---------------5-5-5-5-5-5-5-------------------|
D|-5-5-5-5-5-5-5-7-7-7-7-7-7-7-5-5-5-5-5-5-5-5-5-5-5-5-5-5-5-5-5-5-5-5-5-5-2-|
A|-5-5-5-5-5-5-5-5-5-5-5-5-5-5-5-5-5-5-5-5-5-3-3-3-3-3-3-3-5-5-5-5-5-5-5-5-2-|
E|-3-3-3-3-3-3-3---------------3-3-3-3-3-3-3---------------3-3-3-3-3-3-3-3-0-|
Pm   * *   * *   * * *   * * *   * * *   * *   * * *   *
 
e|-----------------------------------------------------------------|
B|-----------------------------------------------------------------|
G|---------------5-5-5-5-5-5-5-5-7-7-7-7-7-7-7-7-------------------|
D|-2-2-2-2-2-2-2-5-5-5-5-5-5-5-5-7-7-7-7-7-7-7-7-------------------|
A|-2-2-2-2-2-2-2-3-3-3-3-3-3-3-3-5-5-5-5-5-5-5-5-------------------|
E|-0-0-0-0-0-0-0---------------------------------------------------|

Pre Chorus 
e|---------------------------------------------------------------------------|
B|---------------------------------------------------------------------------|
G|-4----4-5----5------5----------------------4-4-4-4-4-4-4-4-5-5-5-5-5-5-5-5-|
D|-4----4-5----5-5----5-5----2-2-2-2-2-2-2-2-4-4-4-4-4-4-4-4-5-5-5-5-5-5-5-5-|
A|-2----2-3----3-5----3-5----2-2-2-2-2-2-2-2-2-2-2-2-2-2-2-2-3-3-3-3-3-3-3-3-|
E|---------------3------3----0-0-0-0-0-0-0-0---------------------------------|
  PM                             * * * * * * * * * * * * * * * * * * * * * *

e|---------------------------------------------|
B|------------------------8--8--7--------------|
G|7-7-7-7-7-7-7-7---5--5-----------------------|
D|7-7-7-7-7-7-7-7------------------------------|
A|5-5-5-5-5-5-5-5------------------------------|
E|---------------------------------------------|

Bridge
e|---------------------------------------------------------------|
B|---------------8--8-7------------------------------------------|
G|-7-7-7--7-5--5--------(x8)-------------------------------------|
D|---------------------------------------------------------------|
A|---------------------------------------------------------------|
E|---------------------------------------------------------------|

End: Not to sure on this bit just play what sounds right
e|---------------------------------------------------------------|
B|---------------------------------------------------------------|
G|-7-7-------7-7-------------------------------------------------|
D|-7-7--5-5--7-7--5-5-----x6-------------------------------------|
A|-5-5--5-5--5-7--5-5--------------------------------------------|
E|------3-3-------3-3--------------------------------------------|

Order

Verse 1
Pre-Chorus 1
Chorus
Verse 2
Pre-Chorus 1
Chorus
Bridge
Pre-Chorus 2
Chorus x2
"            
Tabs too difficult? Try these video lessons and learn fast.




comments powered by Disqus
↑ Back to top | Tablatures and chords are parodies/interpretations of the original songs. You may use it for private study, scholarship, research or language learning purposes only