» » »

Good Riddance Tabs (ver.4)

Artists:  A B C D E F G H I J K L M N O P Q R S T U V W X Y Z # 

Good Riddance Tabs (ver.4)

Green Day
Rating:
0/5 (0 votes)

Tabs too difficult? Try these video lessons and learn fast.
                Greenday - Good Riddance(Time of your life)

This is actually the violin solo but I thought I might tab it anyway.

Starts at about 1:21

e-7-8-10--8-7--5----7-8-10--8-7--10----15-14-12--10-------------------
B---------------------------------------------------12-13-12-10-8-10--
G--------------------------------------------------------------------7
D---------------------------------------------------------------------
A---------------------------------------------------------------------
E---------------------------------------------------------------------

e-7-8-10--8-7-8-7-5--------7--3-5----3-5-7----12--10--8--10
B-------------------8-7------------------------------------
G----------------------------------------------------------
D----------------------------------------------------------
A----------------------------------------------------------
E----------------------------------------------------------
.. it's something unpredictable....
            
Tabs too difficult? Try these video lessons and learn fast.


comments powered by Disqus
↑ Back to top | Tablatures and chords are parodies/interpretations of the original songs. You may use it for private study, scholarship, research or language learning purposes only