» » »

Home Wrecker Tabs (ver.1)

Artists:  A B C D E F G H I J K L M N O P Q R S T U V W X Y Z # 

Home Wrecker Tabs (ver.1)

Gretchen Wilson
Rating:
0/5 (0 votes)

Tabs too difficult? Try these video lessons and learn fast.
                By Yinielin
Gretchen Wilson, Home Wrecker



       
  D  U
E-x--x------------------------------
B-x--x------5-5--------3-3------2-2-
G-x--x------4-4--------2-2------2-2-
D-x--x--2-4-------2-4-------2-4-----
A-----------------------------------
E-----------------------------------

  
E---------------------------------
B-------5-5----------3-3------2-2-
G-------4-4----------2-2------2-2-
D---2-4-----4/2--2-4------2-4-----
A---------------------------------
E---------------------------------
            
Tabs too difficult? Try these video lessons and learn fast.




comments powered by Disqus
↑ Back to top | Tablatures and chords are parodies/interpretations of the original songs. You may use it for private study, scholarship, research or language learning purposes only