>
 >
Apoy

Apoy Bass Tabs

Greyhoundz - Apoy chords, tabs, tablatures, lyrics

Guitar lessons | Add/correct | Request | Top 50 tabs Artists:  A B C D E F G H I J K L M N O P Q R S T U V W X Y Z 0-9

Apoy Bass Tabs – Greyhoundz

CD, Sheet music, Poster

Do you like Apoy? Share with your friends now
Bass TabsTabsTabs v2Tabs v3
        Apoy by Greyhoundz

Standard Tuning 5 Strings

  Intro
G|-----------------------|
D|-----------------------|
A|-----------------------|4x
E|-----------------------|
B|-0-0-0-0-0-0-0-0-------|

  Verse:
  Tatalon kana ba a sinasakyan...
G|--------------------------------------------------------------------|
D|--------------------------------------------------------------------|
A|-22-2-2-2-222-------------------------------------------------------|2x
E|--------------00------------------0h2----00---0h2-0h2----0-----0h2--|
B|-----------------33-3-0-3-03-03-3-----00----0---------00---000------|

  Pre-Chorus:
  Sunog lang ng sunog...
G|-------------------|     --------------------|
D|-------------------|3x   --------------------|
A|-------------------|then ------------32-54---|
E|-2222222232---00---|     -2222222232---------|
B|-----------33------|     --------------------|

  Chorus:
  Kapit ng mahigpit...
G|------------------------------      -----------------------------|
D|------------------------------ 3x   -----------------------------|
A|-2---0------------------------ then -222---0---------------------|
E|---3---2-3-0-2------5---5-7---      ----333--222-33-00-222-------|
B|----------------3-0---7-------      ----------------------333-0--|

G|--------------------------------------------|
D|--------------------------------------------|
A|-----------------00---------------------0---|
E|-222-----333-000----33--222-----333-000-----|
B|-----000--------------------000-------------|

Repeat Verse, Pre-Chorus and Chorus

  Bass solo
G|----------------------------------------------------------------|
D|----------------------------------------------------------------|
A|----------------------------------------------------------------|2x
E|----------------7----------7--7-7---------------7-------7--7--7-|
B|-0-0-0-0-0-0-0-0-0-0-0-0-00-00-0-0-0-0-0-0-0-0-0-0-0-0-0-00-00-0|

G|--------------------------------------------------------|
D|--------------------------------------------------------|
A|--------------------------------------------------------|
E|-7---7-8-----------6-6-7---7-8--------------------------|
B|---8-----8-7-5-3/8-------8-----8-7-55555555-3333-2222---|

G|-----------------------------------|
D|-----------------------------------|
A|-----------------------------------|4x
E|-0h2----00---0h2-0h2----0-----0h2--|
B|-----00----0---------00---000------|

G|----------------------------------------------|
D|----------------------------------------------|
A|-----------------00---------------------00----|6x
E|-222-----333-000----33--222-----333-000----33-|
B|-----000--------------------000---------------|

  Chorus:
  Kapit ng mahigpit...
G|------------------------------      --------------------------|
D|------------------------------ 3x   --------------------------|
A|-2---0------------------------ then -222---0------------------|
E|---3---2-3-0-2------5---5-7---      ----333--222-33-00-2------|
B|----------------3-0---7-------      ---------------------3-0--|

G|-----------------|
D|-----------------|
A|-----------------|
E|-0h2----00---0h2-|
B|-----00----0-----|

Enjoy!!!





Comments


Popular Greyhoundz tabs & chords
Leech Bass Tabs
Pig Face 1 Bass Tabs
Apoy 2 Tabs
Battle Cry Tabs
Jack In The Box Tabs
Leech 2 Tabs
Monologue Tabs
Party 802 Intro Tabs
Party @ 8:02 Tabs
Y Tabs


Song lyrics



↑ Back to top | Tablatures and chords are parodies/interpretations of the original songs. You may use it for private study, scholarship, research or language learning purposes only
© 2014 AZChords.com Contact us | Privacy policy | DMCA | Add/correct tabs | Request tabs | Top 50 tabs