>
 >
Doble Kara 3

Doble Kara 3 Guitar Tabs

Greyhoundz - Doble Kara 3 chords, tabs, tablatures, lyrics

Guitar lessons | Add/correct | Request | Top 50 tabs Artists:  A B C D E F G H I J K L M N O P Q R S T U V W X Y Z 0-9

Doble Kara 3 Guitar Tabs – Greyhoundz

CD, Sheet music, Poster

Do you like Doble Kara 3? Share with your friends now
TabsTabs v2Tabs v3Tabs v4
LEGENDS
/-slide
h-hammer                      Try nyo po tong 1st tab ko!
p-pull                        mga around 90% accurate lng po toh!^^
PM-Palm Mute                  Tunning: Drop B
x-mute sting                  bali Drop D then 3 steps pababa= Drop B^^
b-bend
^-artificial harmonic
^b-artificial harmonic bend
L-let it ring

Intro
C#|-------------------------------|\
G#|-------------------------------| \
E |-------------------------------|  \
B |-------7^-7^-8-----------------|   \
F#|-2/5-5---------7/8p7-7h8-------|    \
B |-------------------------------|     \
                                         - repeat 3 times
C#|-------------------------------|     /
G#|-------------------------------|    /
E |-----------------------7^b-----|   /
B |----7^-7^-8--------------------|  /
F#|--5---------7h8-7-5--5---------| /
B |-------------------------------|/
then
C#|-------------------------------|
G#|-------------------------------| 
E |-------------------------------|  
B |-------7^-7^-8-----------------|   
F#|-2/5-5---------7/8p7-7h8-------|    
B |-------------------------------|     

C#|-------------------------------|     
G#|-------------------------------|    
E |-------------------------------|   
B |----7^-7^-8--------------------| 
F#|--5---------7h8-7-5------------| 
B |-------------------------------|

Intro II
C#|-------------------------------|\                
G#|-------------------------------| \                
E |-------------------------------|  \ repeat 3 times 
B |-------------------------------|  /
F#|-------0-------0-----0---------| / \  
B |-2h3-3-0-2h3-3-0-2h3-0---------|/   \
then                                    \ Repeat the whole 
C#|-------------------------------|     / thing twice or 3 times
G#|-------------------------------|    /  pakinggan nyo lng ^^
E |-------------------------------|   /
B |---------------7--8------------|
F#|-------0--0-0--7--8------------|   
B |-2h3-3-0--0-0--7--8------------|
             PM   L  L
C#|---------------------------------------------------|
G#|---------------------------------------------------|
E |---------------------------------------------------|  
B |---------------------------------------------------| 
F#|--0-0-0--0-0--0-0-0--0-0---1-1-1--1-1--1-1-1--1-1--| 
B |--0-0-0--0-0--0-0-0--0-0---1-1-1--1-1--1-1-1--1-1--|
    PM PM PM PM PM PM PM PM  PM PM PM PM PM PM PM PM

Verse:
C#|---------------------------------------------------|\
G#|---------------------------------------------------| \Ulitin nyo lng 
E |---------------------------------------------------|  \ hanggang sa 
B |---------------------------------------------------|  /Second Verse
F#|--0-0-0--0-0--0-0-0--0-0---1-1-1--1-1--1-1-1--1-1--| / 
B |--0-0-0--0-0--0-0-0--0-0---1-1-1--1-1--1-1-1--1-1--|/
    PM PM PM PM PM PM PM PM  PM PM PM PM PM PM PM PM

Verse II
C#|---------------------------------------------------------------------|
G#|---------------------------------------------------------------------|
E |---------------------------------------------------------------------|   
B |------------------------------------------------------1--1-1-1---1^b--|  
F#|--0-0-0--0-0------2-2--0-0-0--2h3-2h3-0--1-1-1--0-0---1--1-1-1--1-----|
B |--0-0-0--0-0--1h2-2-2--0-0-0--2h3-2h3-0--1-1-1--0-0---1--1-1-1-1------|
          PM PM                                   PM PM

Pre Chorus:
C#|-----------------------------------|\
G#|-----------------------------------| \ 
E |-----------------------------------|  \  Repeat
B |-------7--------8------------------|  / 3 times
F#|--0-0--7--7-7---8--2-2--2-3-2-3----| /
B |--0-0--7--7-7---8--2-2--2-3-2-3----|/
   PM PM    PM PM    PM PM          
C#|----------------------|
G#|----------------------|
E |----------------------|   
B |-------7--------8-----|  
F#|--0-0--7--7-7---8-----|
B |--0-0--7--7-7---8-----|
   PM PM    PM PM   

Chorus:
C#|-----------------------------------|\
G#|-----------------------------------| \ 
E |-----------------------------------|  \  Repeat
B |-----------------------------------|  / 3 times
F#|--0-7-x-8--------------------------| /
B |--0-7-x-8--2^h3^-2-2^h3^-----------|/
then
C#|------------------|
G#|------------------|  
E |------------------|  
B |------------------|  
F#|--0-7-x-8--2h3-2--| 
B |--0-7-x-8--2h3-2--|             

C#|-----------------------------------|\
G#|-----------------------------------| \ 
E |-----------------------------------|  \  Repeat
B |-----------------------------------|  / 3 times
F#|--0-7-x-8--3-2-2h3-----------------| /
B |--0-7-x-8--3-2-2h3-----------------|/
then
C#|----------------|
G#|----------------|  
E |----------------|  
B |----------------|  
F#|--0-7-x-8--3-2--| 
B |--0-7-x-8--3-2--|  

C#|-------------------------------|\                
G#|-------------------------------| \                
E |-------------------------------|  \ repeat 3 times 
B |-------------------------------|  /
F#|-------0-------0-----0---------| /  
B |-2h3-3-0-2h3-3-0-2h3-0---------|/   
then                                      
C#|-------------------------------|     
G#|-------------------------------|     
E |-------------------------------|   
B |---------------7--8------------|
F#|-------0--0-0--7--8------------|   
B |-2h3-3-0--0-0--7--8------------|
             PM   L  L
C#|---------------------------------------------------|
G#|---------------------------------------------------|
E |---------------------------------------------------|  
B |---------------------------------------------------| 
F#|--0-0-0--0-0--0-0-0--0-0---1-1-1--1-1--1-1-1--1-1--| 
B |--0-0-0--0-0--0-0-0--0-0---1-1-1--1-1--1-1-1--1-1--|
    PM PM PM PM PM PM PM PM  PM PM PM PM PM PM PM PM

Verse:
C#|---------------------------------------------------|\
G#|---------------------------------------------------| \Ulitin nyo lng 
E |---------------------------------------------------|  \ hanggang sa 
B |---------------------------------------------------|  /Second Verse
F#|--0-0-0--0-0--0-0-0--0-0---1-1-1--1-1--1-1-1--1-1--| / 
B |--0-0-0--0-0--0-0-0--0-0---1-1-1--1-1--1-1-1--1-1--|/
    PM PM PM PM PM PM PM PM  PM PM PM PM PM PM PM PM

Verse II
C#|---------------------------------------------------------------------|
G#|---------------------------------------------------------------------|
E |---------------------------------------------------------------------|   
B |------------------------------------------------------1--1-1-1---1^b--|  
F#|--0-0-0--0-0------2-2--0-0-0--2h3-2h3-0--1-1-1--0-0---1--1-1-1--1-----|
B |--0-0-0--0-0--1h2-2-2--0-0-0--2h3-2h3-0--1-1-1--0-0---1--1-1-1-1------|
          PM PM                                   PM PM

Pre Chorus:
C#|-----------------------------------|\
G#|-----------------------------------| \ 
E |-----------------------------------|  \  Repeat
B |-------7--------8------------------|  / 3 times
F#|--0-0--7--7-7---8--2-2--2-3-2-3----| /
B |--0-0--7--7-7---8--2-2--2-3-2-3----|/
   PM PM    PM PM    PM PM          
C#|----------------------|
G#|----------------------|
E |----------------------|   
B |-------7--------8-----|  
F#|--0-0--7--7-7---8-----|
B |--0-0--7--7-7---8-----|
   PM PM    PM PM   

Chorus:
C#|-----------------------------------|\
G#|-----------------------------------| \ 
E |-----------------------------------|  \  Repeat
B |-----------------------------------|  / 3 times
F#|--0-7-x-8--------------------------| /
B |--0-7-x-8--2^h3^-2-2^h3^-----------|/
then
C#|------------------|
G#|------------------|  
E |------------------|  
B |------------------|  
F#|--0-7-x-8--2h3-2--| 
B |--0-7-x-8--2h3-2--|             

C#|-----------------------------------|\
G#|-----------------------------------| \ 
E |-----------------------------------|  \  Repeat
B |-----------------------------------|  / 3 times
F#|--0-7-x-8--3-2-2h3-----------------| /
B |--0-7-x-8--3-2-2h3-----------------|/
then
C#|----------------|
G#|----------------|  
E |----------------|  
B |----------------|  
F#|--0-7-x-8--3-2--| 
B |--0-7-x-8--3-2--|  

C#|-------------------------------|\                
G#|-------------------------------| \                
E |-------------------------------|  \ repeat 3 times 
B |-------------------------------|  /
F#|-------0-------0-----0---------| / \  
B |-2h3-3-0-2h3-3-0-2h3-0---------|/   \
then                                    \ Repeat the whole 
C#|-------------------------------|     / thing twice 
G#|-------------------------------|    / 
E |-------------------------------|   /
B |---------------7--8------------|
F#|-------0--0-0--7--8------------|   
B |-2h3-3-0--0-0--7--8------------|  then PICK SCRAP po, Alam nyo na yun ^^
             PM   L  L
Bridge
C#|---------------------------------------------------------|
G#|---------------------------------------------------------|  
E |---------------------------------------------------------|  
B |----------------------------10-9-------------------------|  
F#|--3--5-3-5--5-5h6-5-3-5-6---8--7--------00------00---------| 
B |--3------------------------------7h8-7--00--4/5-00--5h7----|  
    PM                                     PM       PM 
Bridge II-medyo po mabilis d2 napansin nyo ung magkadikit na note           
C#|--------------------------------------------------------|\
G#|--------------------------------------------------------| \ Repeat
E |--------------------------------------------------------|  \ twice
B |--------------------------------------------------------|  /
F#|-00-7h8-00-5h7-00-7h8-00-5h7--0h33333-------------------| /
B |-00-7h8-00-5h7-00-7h8-00-5h7--0h33333-7-6-4-0--8-6-4-0--|/  

C#|------------------------------------------------------------|\
G#|------------------------------------------------------------| \ Repeat
E |------------------------------------------------------------|  \ twice
B |------------------------------------------------------------|  /
F#|-00-7h8-00-5h7-00-7h8-00-5h7--0h3-3-3-3-3-------------------| /
B |-00-7h8-00-5h7-00-7h8-00-5h7--0h3-3-3-3-3-7-6-4-0--8-6-4-0--|/     

C#|-----------------------------------------------------|\
G#|-----------------------------------------------------| \  Repeat
E |-----------------------------------------------------|  \  twice
B |-----------------------------------------------------|  /
F#|--00-0--0-0--0-0-0-0--0-0---11-1--1-1--1-1-1-1--1-1--| /
B |--00-0--0-0--0-0-0-0--0-0---11-1--1-1--1-1-1-1--1-1--|/
    
C#|-------------------------------|
G#|-------------------------------|
E |-------------------------------|  
B |-------7^-7^-8-----------------|   
F#|-2/5-5---------7/8p7-7h8-------|    
B |-------------------------------|     
then                                        
C#|-------------------------------|     
G#|-------------------------------|    
E |-----------------------7^b-----| 
B |----7^-7^-8--------------------| 
F#|--5---------7h8-7-5--5---------|
B |-------------------------------|

Chorus:
C#|-------------------------------|\
G#|-------------------------------| \ 
E |-------------------------------|  \  Repeat
B |-------------------------------|  / 3 times
F#|--0-7-x-8--2h3-2-2h3-----------| /
B |--0-7-x-8--2h3-2-2h3-----------|/
then
C#|------------------|
G#|------------------|  
E |------------------|  
B |------------------|  
F#|--0-7-x-8--2h3-2--| 
B |--0-7-x-8--2h3-2--|             

C#|-----------------------------------|\
G#|-----------------------------------| \ 
E |-----------------------------------|  \  Repeat
B |-----------------------------------|  / 3 times
F#|--0-7-x-8--3-2-2h3-----------------| /
B |--0-7-x-8--3-2-2h3-----------------|/
then
C#|----------------|
G#|----------------|  
E |----------------|  
B |----------------|  
F#|--0-7-x-8--3-2--| 
B |--0-7-x-8--3-2--|  

C#|-------------------------------|\                
G#|-------------------------------| \                
E |-------------------------------|  \ repeat 3 times 
B |-------------------------------|  /
F#|-------0-------0-----0---------| / \  
B |-2h3-3-0-2h3-3-0-2h3-0---------|/   \
then                                    \ Repeat the whole 
C#|-------------------------------|     / thing twice
G#|-------------------------------|    /  pakinggan nyo lng ^^
E |-------------------------------|   /
B |---------------7--8------------|
F#|-------0--0-0--7--8------------|   
B |-2h3-3-0--0-0--7--8------------|
             PM   L  L
Outro:
C#|-----------------------------------|\
G#|-----------------------------------| \ 
E |-----------------------------------|  \  Repeat
B |-------7--------8------------------|  / 3 times
F#|--0-0--7--7-7---8--2-2--2-3-2-3----| /
B |--0-0--7--7-7---8--2-2--2-3-2-3----|/
   PM PM    PM PM    PM PM          
C#|----------------------|
G#|----------------------|
E |----------------------|   
B |-------7--------8-----|  
F#|--0-0--7--7-7---8-----|
B |--0-0--7--7-7---8-----|
   PM PM    PM PM   
The END->>>>>>>>>>>>>>>>





Comments


Popular Greyhoundz tabs & chords
Hole Live Bass Tabs
Im Your Puppetz And Clown Bass Tabs
Pig Face Bass Tabs
Doble Kara 2 Tabs
Monologue Tabs
Mr Pig 1 Tabs
Party @ 8:02 Tabs
Shoot To Kill Tabs
Stage Tabs
Your Puppet And Clown Tabs


Song lyrics



↑ Back to top | Tablatures and chords are parodies/interpretations of the original songs. You may use it for private study, scholarship, research or language learning purposes only
© 2014 AZChords.com Contact us | Privacy policy | DMCA | Add/correct tabs | Request tabs | Top 50 tabs