» » »

Live And Let Die Tabs (ver.5)

Artists:  A B C D E F G H I J K L M N O P Q R S T U V W X Y Z # 

Live And Let Die Tabs (ver.5)

Guns N Roses
Rating:
0/5 (0 votes)

Tabs too difficult? Try these video lessons and learn fast.
                Live and Let Die as performed by Guns N' Roses
Written by Paul and Linda McCartney
tune down half a step (from low to high Eb,Ab,Db,Gb,Bb,Eb)

NOTE:THIS TAB WAS MADE BY A CANADIAN DUDE NAMED COLTON GARBE I FOUND THIS TAB ON

Legend
T=thumb (used in chords)
v=vibrato
b=bend
\=slide down
/slide up
P.M.=palm mute
x=pick scr*pes
h=hammer on
p=pull off
r=release bend
()=note in parenthasis is fret bent up to

Chords used in this tab
numbers beside the chord are fingerings (There are two different G5's used)
  G       C      D     Bm     Bm7   Cmaj7     A     Dm     G5     C5
|-3-|1 |-0-|  |-2-|2 |-2-|1 |-2-|2 |-1-|3  |-0-|  |-1-|1 |-x-|  |-x-|
|-3-|1 |-1-|  |-3-|3 |-3-|2 |-3-|3 |-0-|   |-2-|3 |-3-|3 |-x-|  |-x-|
|-4-|2 |-0-|  |-2-|1 |-4-|4 |-2-|1 |-0-|   |-2-|2 |-2-|2 |-x-|  |-5-|4
|-5-|4 |-2-|2 |-0-|  |-4-|3 |-0-|  |-2-|1  |-2-|1 |-0-|  |-5-|4 |-5-|3
|-5-|3 |-3-|3 |-x-|  |-2-|1 |-2-|T |-3-|2  |-0-|  |-x-|  |-5-|3 |-3-|1
|-3-|1 |-x-|  |-x-|  |-2-|1 |-2-|T |-0-|   |-0-|  |-x-|  |-3-|1 |-3-|1
 Gb5    G5v     G     D5
|-x-|  |-x-|  |-3-|3 |-x-|
|-x-|  |-x-|  |-0-|  |-x-|
|-6-|4 |-7-|4 |-0-|  |-5-|4
|-5-|3 |-5-|3 |-0-|  |-5-|3
|-4-|2 |-5-|2 |-2-|1 |-3-|1
|-3-|1 |-4-|1 |-3-|2 |-0-|

Beginning guitar part is there it is just hard to hear because the piano is so loud
Intro/verse 1 (0:00)
  G           Bm                 C                             D
e-3-------------------------------------------------------------------------------|
B-3------3------------3--------------------------1--------------------3----4------|
G-4------------------------0---------------------------------0--------------------|
D-5---------------4----------------------0-----------2-----------0--------------0-|
A-5-----------2-------------------3-----------------------------------------------|
E-3-------------------------------------------------------------------------------|
         G           Bm7                      Cmaj7                D
e------------------3------------------------------------0-------------------------|
B-------------------0---------3----------------------------------0----------3-----|
G-2-------0----------------2------------0---------0---------0-----------2------2--|
D---------0------------------------4----------------------------------0-----------|
A------------------------2-------------------3------------------------------------|
E---------------------------------------------------------------------------------|
              G                              Bm7                              C
e------------------------------------3---------------------------2----------------|
B----4------------------------3----------------0----3--------------------0--------|
G-------2--------0---------0------------0--------2-----2--------2-------------0---|
D--------------0---------------------------------------4----------------------2---|
A------------------------------------------------------2----------------------3---|
E---------------------------------------------------------------------------------|
                          A                            D                 Dm
e-------------0--------------------0----------------------------------------------|
B--------------------1--------------------------------------3----------------3----|
G------0---------------0-----2-------2----0-----------------2------------2--------|
D-------------------------------------------------------0---------0---------0-----|
A--------------------------0------------------------------------------------------|
E---------------------------------------------------------------------------------|

                 End of intro

e-----0----1-----------0--1--|
B-----------------3----------|
G--------------2-------------|
D----------------------------|
A----------------------------|
E----------------------------|

Chorus: Bridge pickup with heavy distortion (0:29)
           G5     C5    Gb5     G5v    G5     C5     Gb5
e-------------------------------------------------------|
B-------------------------------------------------------|
G-----------------5------6------7-------------5------6--|
D----------5------5------5------5------5------5------5--|
A----------5------3------4------5------5------3------4--|
E-13\3-----3------3------3------3------3------3------3--|

Main Riff (0:42) - 2x

e-------------------------------------------------------------------------------------------|
B-------------------------------------------------------------------------------------------|
G-12---14---15------7---9---10------5---3---0------12---14---15------7---9---10------5---3--|
D-12---14---15------7---9---10------5---3---0------12---14---15------7---9---10------5---3--|
A-------------------------------------------------------------------------------------------|
E-------------------------------------------------------------------------------------------|
Rhythm Part (All downstrokes)
   G5's
e--------------------------------------|
B--------------------------------------|
G--------------------------------------|keep on through the lead part
D--5---5---5---5---5---5---5---5---5---|
A--5---5---5---5---5---5---5---5---5---|
E--3---3---3---3---3---3---3---3---3---|

Lead Part 1 (1:02)    2x

e------------------------------------------------------------------------|
B------------------------------------------------------------------------|
G-15---11---13---9---11---15---11---13---9--11--12--9--11--12--14v--12/1-|
D-13----9---11---7----9---13----9---11---7---9--10--7---9--10--12v--12/1-|
A------------------------------------------------------------------------|
E------------------------------------------------------------------------|

Verse 2 (1:18)

e-------------------------------------------3--3--3--|
B-------------------------------------------3--3--3--|
G------------3---------------------------------------|
D----x/-------------x/-x-\x-------5------------------|
A-------------------------------------5--------------|
E----------------------------------------------------|

e----------3------------7----x---x----------------------10----------------------10|
B-------------------------------------------------10----------10------------------|
G--3h4---------5/7--------------------------11-----------------------10h11--------|
D-------------------------------------12------------------------------------------|
A---------------------------------------------------------------------------------|
E---------------------------------------------------------------------------------|
                                  E5      F5
e-----12/14---14\16----------------------------|
B----------------------------------------------|
G-----12/14---14\16----------------------------|
D---------------------------------2-------3----|
A---------------------------------2-------3----|
E---------------------------------0-------1----|

Main Riff (1:33) - 2x

e------------------------------------------------------------------------------------------|
B------------------------------------------------------------------------------------------|
G-12---14---15------7---9---10------5---3---0------12---14---15------7---9---10------5---3-|
D-12---14---15------7---9---10------5---3---0------12---14---15------7---9---10------5---3-|
A------------------------------------------------------------------------------------------|
E------------------------------------------------------------------------------------------|

Solo(1:45)neck pickup

e--------------------------------------------------|
B--------------------------------------------------|
G----------7---9b(11)r--9p7----6b(7)--5b(7)r-------|
D-9b(10)----------------------------------------8v-|
A--------------------------------------------------|
E--------------------------------------------------|

Verse 3 - 1:54

    Cmaj7                     D
e----------0----------------------------------------|
B---------------1------0-------------3------4-------|
G------0-----------0-------------2------2------2----|
D-----------------------------0---------------------|
A---3-----------------------------------------------|
E---------------------------------------------------|
              G                         Bm7                               Cmaj7
e------------------------------3--------------------------------------------------|
B---------3----------------------3--------0------------3--------------------------|
G----------------------0--------------0------------2-------2-------0--------------|
D------0------------0----------------------------4-----------------4---------2----|
A------------------------------------------------------------------------3--------|
E---------------------------------------------------------------------------------|
                      A                            D5                   Dm
e------0------------------------------0-------------------------------------------|
b-----------1-----0---------------2----------------------3------------------3-----|
G--------------0---------------2---------0------------------2---------------2-----|
D-----------------------------------------------0----0-----------0----------------|
A-----------------------0---------------------------------------------------------|
E---------------------------------------------------------------------------------|


e----0--1--|
B----------|
G----------|
D----------|
A----------|
E----------|

Chorus: Bridge pickup with heavy distortion (2:13)

           G5     C5    Gb5     G5v    G5     C5     Gb5
e-------------------------------------------------------|
B-------------------------------------------------------|
G-----------------5------6------7-------------5------6--|
D----------5------5------5------5------5------5------5--|
A----------5------3------4------5------5------3------4--|
E-13\3-----3------3------3------3------3------3------3--|

Main Riff (2:26) - 4x - play during lead part 2 - twice before lead part, twice after

e------------------------------------------------------------------------------------------|
B------------------------------------------------------------------------------------------|
G-12---14---15------7---9---10------5---3---0------12---14---15------7---9---10------5---3-|
D-12---14---15------7---9---10------5---3---0------12---14---15------7---9---10------5---3-|
A------------------------------------------------------------------------------------------|
E------------------------------------------------------------------------------------------|

Lead part 2 - 2x - 2:39

e--15---17---18v--------------------------------------15---17---18v-----|
B---------------------15---17---18v-------------------------------------|
G-------------------------------------15b(17)r---12---------------------|
D-----------------------------------------------------------------------|
A-----------------------------------------------------------------------|
E-----------------------------------------------------------------------|
                        End  Order:
e-----------------18b(20)r-| Intro/Verse 1: 0:00  Solo:        1:45-|
B-15---17---18v------------| Chorus:        0:29  Verse 3:     1:54-|
G--------------------------| Main Riff:     0:42  Chorus:      2:13-|
D--------------------------| Lead Part 1:   1:02  Main Riff:   2:26-|
A--------------------------| Verse 2:       1:18  Lead Part 2: 2:39-|
E--------------------------| Main Riff:     1:33--------------------|
            
Tabs too difficult? Try these video lessons and learn fast.




comments powered by Disqus
↑ Back to top | Tablatures and chords are parodies/interpretations of the original songs. You may use it for private study, scholarship, research or language learning purposes only