» » »

Heaven Cant Be Found Chords (ver.1)

Artists:  A B C D E F G H I J K L M N O P Q R S T U V W X Y Z # 

Heaven Cant Be Found Chords (ver.1)

Hank Williams
Rating:
0/5 (0 votes)

Tabs too difficult? Try these video lessons and learn fast.
                -------------------------------------------------------------------------------
                             HEAVEN CAN'T BE FOUND - HANK WILLIAMS JR
-------------------------------------------------------------------------------

Tuning:Standard/Chords used.

       E*     D*     A     D     E    
     Eb
e|-------------------------2------------------------------------------------|
B|-------9-------7---2------3------------3-------8--------------------------|
G|-------9-------7---2-----2-----1----1----------8--------------------------|
D|-------9-------7---2------------2----2---------8--------------------------|
A|----7-------5-------------------2----2------6-----------------------------|
E|--------------------------------------------------------------------------|

Intro.  E*  D*  A        E*   D*   A

          A                                D     A
I looked over at my pillow but your face wasn't there.

E                                           A    E*  D*
And I don't smell the perfume you used to wear.

    A                                                      D       A
And I don't see your blouse or jeans or your pretty white cotton gown.

           E                        E7              A      
 D*
And I've looked all over hell, but heaven can't be found.

         A                                       D       A
I looked on the bedside table, but your jewelry was all gone,

E                                                        A     
  D*
And I just wish you'd call me ev'ry time I look at the phone.

    A                                              D     A
I looked in our dressing mirror and I saw myself break down.

E                               E7                   A
Oh, I've looked all over hell, but heaven can't be found.

       D                                   A
I've called and looked in every place you used to hang around.

       E                           Eb   D            
    E*   D*
I've search in ev'ry bar and club and honky tonk in town.

    A                                     D        A
And I don't know if I can go on without breaking down.

E                               E7              A
I've looke all over hell, but heaven can't be found.

                                           D       A
And I don't know if I can go on without breaking down.

           E                            E7              A
Oh, I've looked all over hell, but my heaven can't be found.
            
Tabs too difficult? Try these video lessons and learn fast.




comments powered by Disqus
↑ Back to top | Tablatures and chords are parodies/interpretations of the original songs. You may use it for private study, scholarship, research or language learning purposes only