» » »

Three Times Tabs (ver.1)

Artists:  A B C D E F G H I J K L M N O P Q R S T U V W X Y Z # 

Three Times Tabs (ver.1)

Haunted
Rating:
0/5 (0 votes)

Tabs too difficult? Try these video lessons and learn fast.
                Band- Haunted
Song- Three Times

Eb Ab Db Gb Bb Eb


  Q=170
 4/4
  Gtr I
  E E E E E E E E   E E E E E E E E   W
|-----------------|-----------------|------|
|-----------------|-----------------|------|
|-----------------|-----------------|------|
|-----------------|-----------------|------|
|---2-3-5---2-3-5-|---2-3-5---2-6-5-|------|
|---0-1-3---0-1-3-|---0-1-3---0-4-3-|------|


                                                1.
    ~~~~~~~~~~~~~~~~~~~           ~~~~~~~~~~~
    Q  Q  Q  Q    Q  Q  E E E E   Q  Q  Q  Q    E E E E E E E S S
||--------------|---------------|-------------|--------------------||
||o-------------|---------------|-------------|-------------------o||
||--------------|---------------|-------------|--------------------||
||--------------|---------------|-------------|--------------------||
||o-------------|---------0---0-|-------------|---0---1---0---1-0-o||
||--2--2--2--2--|-2--2--2---2---|-2--2--2--2--|-2---2---2---2------||


  2.
  E E E E E E E E   E E E E
|-----------------|------------|
|-----------------|------------|
|-----------------|------------|
|-----------------|------------|
|---0---1-0---3-0-|-2-2-3-5----|
|-2---2-----2-----|-0-0-1-3----|


                                              1.
    ~~~~~~~~~~~~~~~~~~~~~~~~~~~~~~~~~~~~~~~
    Q  Q  Q  Q    Q  Q  Q  Q    Q  Q  Q  Q    E E E E E E E S S
||--------------|-------------|-------------|--------------------||
||o-------------|-------------|-------------|-------------------o||
||--------------|-------------|-------------|--------------------||
||--------------|-------------|-------------|--------------------||
||o-------------|-------------|-------------|---0---1---0---1-0-o||
||--2--2--2--2--|-2--2--2--2--|-2--2--2--2--|-2---2---2---2------||


  2.
  E E E E E E E E
|--------------------|
|--------------------|
|--------------------|
|--------------------|
|---0---1-0---3-0----|
|-2---2-----2--------|


  ~~~~~~~~~~~~~~~~~~~~~~~~~~~~~~            ~~~~~~
  Q  Q  Q  Q      Q   Q   Q   Q    E E E E +Q   Q    E E E E E E E E
|-------------|------------------|-----------------|-------------------|
|-------------|------------------|-----------------|-------------------|
|-------------|-/11--11--11--11--|-----------------|-------------------|
|-------------|------------------|-----------------|-------------------| This riff appears occasionally during the verses
|-------------|--/9---9---9---9--|-----------------|---0---1-0---3-0---|
|-2--2--2--2--|------------------|-3-2-0-2-(2)--2--|-2---2-----2-------|


 2/4         4/4
  PM----|
  E E E E     Q Q E E E E   +Q   Q  Q  Q
|---------||--------------|-----------------|
|---------||o-------------|-----------------|
|---------||------------7-|-(7)--7--7--7----|
|---------||--6-6-6-6-6-5-|-(5)--5--5--5----|
|-2-2-3-5-||o-4-4-4-4-4-5-|-(5)--5--5--5----|
|-0-0-1-3-||--------------|-----------------|


  1.
  Q  Q  E E E E   +Q   Q  E E S S S S
|---------------|-------------------------||
|---------------|------------------------o||
|---------------|-------------------------||
|-6--6--6-6-6---|-------------------------||
|-4--4--4-4-4-5-|-(5)--5--3-3-2-3-2-0----o||
|-------------3-|-(3)--3------------------||


  2.
        PM----|
                 |--3--|  |--3--|
  Q  Q  E E E E  Q  Q  Q  Q  Q  Q
|------------------------------------|
|------------------------------------|
|----------------7--6--7--9--7--9----|
|-6--6-------------------------------|
|-4--4--7-5-7-5--5--4--5--7--5--7----|
|------------------------------------|


  2.
        PM--------------------------------------|
  Q  Q  E E E E E E E E E E E S S E E E E E E E E
|----------------------------------------------------|
|----------------------------------------------------|
|----------------------------------------------------|
|-6--6--9-7------------------------------------------|
|-4--4--7-5-7-5-4-5-4-5-4-5-4-5-5-4-5-4-5-4-5-4-5----|
|-----------5-3-2-3-2-3-2-3-2-3-3-2-3-2-3-2-3-2-3----|


  Gtr I
  PM|           PM|
  E E  E  E E E E E E E E E
|------------------------------|
|------------------------------|
|------------------------------|
|------------------------------|
|-4-4--4--5-5-7-4-4-4-5-5-7----|
|-2-2--2--3-3-5-2-2-2-3-3-5----|
|
| Gtr II
| PM--------------|
| E E +H        E E Q   Q
|------------------------------|
|------------------------------|
|------------------------------|
|------------------------------|
|-4-4-(4)-------4-4------------|
|-2-2-(2)-------2-2------------|


   3/4                          4/4
    Gtrs I, II
    PM|           PM|            PM|          PM|
    E E E E E E   E E  E E E E   E E E E  E E E E     4x
||--------------|--------------|----------------------||
||o-------------|--------------|---------------------o||
||--------------|--------------|----------------------||
||--------------|--------------|----------------------||
||o-4-4-4-5-5-7-|-4-4--4-5-5-8-|-4-4-4-5--5-7-4-2----o||
||--2-2-2-3-3-5-|-2-2--2-3-3-6-|-2-2-2-3--3-5-2-0-----||


    PM|         PM|           PM|           PM|    PM--------|
    E E E E E E E E   E E E E E E E E   E E E E Q  E E E E E E
||------------------|-----------------|----------------------------||
||o-----------------|-----------------|---------------------------o||
||------------------|-----------------|----------------------------||
||------------------|-----------------|----------------------------||
||o-4-4-4-5-5-7-4-4-|-4-5-5-8-4-4-4-5-|-5-7-4-2-4--4-4-4-4-4-4----o||
||--2-2-2-3-3-5-2-2-|-2-3-3-6-2-2-2-3-|-3-5-2-0-2--2-2-2-2-2-2-----||


                          1.
    Q  E Q  E E  Q E E  Q  E E  E
||------------------------------------||
||o----------------------------------o||
||------------------------------------||
||--7--7-8--7-7-10-7-7-11-10-8-10-----||
||o----------------------------------o||
||--5--5-6--5-5--8-5-5--9--8-6--8-----||


  2.
  E E  E
|-----------|
|-----------|
|-----------|
|-7-8-10----|
|-----------|
|-5-6--8----|


    PM|         PM|
    E E E E E E E E   E E E E
||------------------|-------------||
||o-----------------|------------o||
||------------------|-------------||
||------------------|-------------||
||o-4-4-4-5-5-7-4-4-|-4-5-5-8----o||
||--2-2-2-3-3-5-2-2-|-2-3-3-6-----||


  Q  E Q  E E  Q   E E  Q  E E  E
|------------------------------------|
|------------------------------------|
|------------------------------------|
|-7--7-8--7-7-10---7-7-11--7-8-10----|
|------------------------------------|
|-5--5-6--5-5--8---5-5--9--5-6--8----|


  H.      +E  E +H  E E E E W        Q.   E H
|------------------------------------------------|
|------------------------------------------------|
|------------------------------------------------|
|-6-------(6)-5-(5)---------6--------------------|
|-4-------(4)-3-(3)-7-7-7-7-4--------5----7-8----|
|-------------------5-5-5-5----------3----5-6----|


        PM----|
  Q  Q  E E E E  W.            Q  Q
|--------------------------------------|
|--------------------------------------|
|----------------3---------------------|
|-6--6-------------------------3--3----|
|-4--4--7-5-7-5--1-------------3--3----|
|------------------------------1--1----|


  Q  E Q  E E Q   E E Q  E E E
|---------------------------------|
|---------------------------------|
|---------------------------------|
|-4--4-5--4-4-7---4-4-8--4-5-7----|
|---------------------------------|
|-2--2-3--2-2-5---2-2-6--2-3-5----|


  PM      PM      PM
  E E E E E E E E E E E E
|----------------------------|
|----------------------------|
|----------------------------|
|----------------------------|
|-2-2-3-5-2-2-3-5-2-2-3-5----|
|-0-0-1-3-0-0-1-3-0-0-1-3----|
            
Tabs too difficult? Try these video lessons and learn fast.




comments powered by Disqus
↑ Back to top | Tablatures and chords are parodies/interpretations of the original songs. You may use it for private study, scholarship, research or language learning purposes only