» » »

California Tabs (ver.2)

Artists:  A B C D E F G H I J K L M N O P Q R S T U V W X Y Z # 

California Tabs (ver.2)

Hawk Nelson
Rating:
5/5 (3 votes)

Tabs too difficult? Try these video lessons and learn fast.
                (Intro)
I am 100 % positive that this is correct. Listen to the song for rhythms.

E---------------------------------------------------------------------------|
B---------------------------------------------------------------------------|
G---------------------------------------------------------------------------|
D--5----5----/ 9----7----5------5------5----5----/--9 --10---9--------------|
A--------------------------------------------------------------------3---3--|
E---------------------------------------------------------------------------|


E-----------------------------------------------------------------------------|
B-----------------------------------------------------------------------------|
G-----------------------------------------------------------------------------|
D----/ 9----7- -------5------------------------9-----10-----9/7/9-------------|
A----------------------------3 ---3—(3) /-------------------------------------|
E------------------------------------------------------------------------5----|
            
Tabs too difficult? Try these video lessons and learn fast.




comments powered by Disqus
↑ Back to top | Tablatures and chords are parodies/interpretations of the original songs. You may use it for private study, scholarship, research or language learning purposes only