» » »

Head On Collision Tabs (ver.3)

Artists:  A B C D E F G H I J K L M N O P Q R S T U V W X Y Z # 

Head On Collision Tabs (ver.3)

Hawk Nelson
Rating:
4/5 (1 vote)

Tabs too difficult? Try these video lessons and learn fast.
                Intro

      B               F#                   E              F#
e--------------------------------------------------------------------------|
B--------------------------------------------------------------------------|
G-----4------4-----------4-------4---------4-------4-----------4-------4---|
D---4--4---4---2-------4---4---4---4-----4---4---4---4-------4---4---4---4-|
A-2------2-----------------------------------------------------------------|
E--------------------2-------2---------0-------0-----------2-------2-------|

Pre-Chorus

     G#      F#     E
e---------------------------------------|
B---------------------------------------|
G---------------------------------------|
D----6-------4------2-------------------|
A----6-------4------2-------------------|
E----4-------2------0-------------------|

Chorus X4

      B    F#    E    F#
e------------------------------------------------------|
B------------------------------------------------------|
G-----4------------------------------------------------|
D-----4----4-----2----4--------------------------------|
A-----2----4-----2----4--------------------------------|
E----------2-----0----2--------------------------------|

Bridge

      G#       B
e----------------------------|
B----------------------------|
G----------------------------|
D-----6--------4-------------|
A-----6--------4-------------|
E-----4--------2-------------|


Ending Riff
(play til end of song)

e---------------------------------------|
B--7-7-7-5-4-2-0-2-0-2h4----------------|
G------------------------4--------------|
D---------------------------------------|
A---------------------------------------|
E---------------------------------------|
            
Tabs too difficult? Try these video lessons and learn fast.


comments powered by Disqus
↑ Back to top | Tablatures and chords are parodies/interpretations of the original songs. You may use it for private study, scholarship, research or language learning purposes only