» » »

Hello Tabs (ver.2)

Artists:  A B C D E F G H I J K L M N O P Q R S T U V W X Y Z # 

Hello Tabs (ver.2)

Hawk Nelson
Rating:
4/5 (9 votes)

Tabs too difficult? Try these video lessons and learn fast.
                

SONG NAME: HELLO / STANDARD TUNING



INTRO:
|-----------------|
|-----------------|
|-5-------5-------|
|-5---3---5---5---|
|-3---3---3---5---|
|-----1-------3---|

play this over the chords, listen to the song to find where it goes.
|-----------------------|-----------------------|
|-----------------------|-----------------------|
|-5-5-5-5-7-7/9-7-5-----|-5-5-5-5-7-7/9-7-5-9-7-|
|-------------------5-3-|-----------------------|
|-----------------------|-----------------------|
|-----------------------|-----------------------|

|-----------------------|-------------------|
|-----------------------|-------------------|
|-5-5-5-5-7-7/9-7-5-----|-5-5-5-5-7-0-0-5-5-|
|-------------------5-3-|-------------------|
|-----------------------|-------------------|
|-----------------------|-------------------|

VERSE:
 C5  F5  G5
|---|---|---|
|---|---|---|
|-5-|---|---|
|-5-|-3-|-5-|
|-3-|-3-|-5-|
|---|-1-|-3-|

             C5             F5
You know you never leave my mind
C5             G5
my sweet sweet madeline
             C5             F5
Every time I look into your eyes
  C5        G5     C5
I feel like I'm alive
          C5            F5
And I can barely make a sound
     C5          G5
when ever you're around
               C5             F5
You can find me hiding in the crowd
     C5       G5      C5
next time you come to town

Hey Hey I've been waitin' all day
            
Tabs too difficult? Try these video lessons and learn fast.


comments powered by Disqus
↑ Back to top | Tablatures and chords are parodies/interpretations of the original songs. You may use it for private study, scholarship, research or language learning purposes only