» » »

I Still Miss You Bass tabs (ver.2)

Artists:  A B C D E F G H I J K L M N O P Q R S T U V W X Y Z # 

I Still Miss You Bass tabs (ver.2)

Hawk Nelson
Rating:
0/5 (0 votes)

Tabs too difficult? Try these video lessons and learn fast.
                ----------------------------------------------------------------------------
			     I STILL MISS YOU
----------------------------------------------------------------------------


This is my first bass tab so take it for what it's worth. I think its all perfect exept 
some of the second verse. There is no bass in the the intro or first verse but it's nice 
play along with it so i put bass into it.

Tuning: Standard

INTRO:                 X3
G|-----------|-----------|-------|
D|-----------|-----------|-------|
A|-----------|-----------|-------|
E|-12/3~--3~-|---3~--33~-|---33~-|

VERSE 1:
G|-0~----------------------|
D|----------------------0~-|   X2
A|---------------3~--------|
E|-3~-----0~---------------|

CHORUS:
G|-------------------------------------------------------------------------|
D|-----0000--------------------0000----0000----------------00000~----------|
A|-3333------------3333----3333----3333------------33330000-------3--------|
E|---------00003333----3333----------------00003333------------------------|

VERSE 2:  *LAST 10 is a ten*
G|-0~----------------------------------------------------------------------|
D|-------------------------------------------------------------------------|
A|---------32100-32100-3210123-3210123-3210123-3210123-3210123---\10-5-----|
E|-3~-33-3-----------------------------------------------------------------|

CHORUS

BRIDGE:    *guitar plays through riff once then bass comes in*
G|----------------------------------|
D|-------------------------00000000-|   X5
A|---------33333333-----------------|
E|-00000000--------33333333---------|


| /  slide up
| \  slide down
| h  hammer-on
| p  pull-off
| ~  vibrato
| +  harmonic
| x  Mute note
===============================================================================
            
Tabs too difficult? Try these video lessons and learn fast.




comments powered by Disqus
↑ Back to top | Tablatures and chords are parodies/interpretations of the original songs. You may use it for private study, scholarship, research or language learning purposes only