» » »

Let's Dance Tabs (ver.4)

Artists:  A B C D E F G H I J K L M N O P Q R S T U V W X Y Z # 

Let's Dance Tabs (ver.4)

Hawk Nelson
Rating:
0/5 (0 votes)

Tabs too difficult? Try these video lessons and learn fast.
                (2)

iNTRO / vERSE--- They teach us to talk…..
E-------------------------------------------|
B-------------------------------------------|
G-------------------------------------------|
D--------------------0---0------------------|
A---0-30-03---------0-00--------------------|
E------------0-30-03---------0000-3333------|

pRE-cHORUS----Why do we fill our heads….
E------------------------------------------------------------|
B------------------------------------------------------------|
G-------------5-5-5-5-5--------------------------------------|
D-3-3-3-3-3---5-5-5-5-5---5-5-5-5-5---7-7-7-7-7--------------|
A-3-3-3-3-3---3-3-3-3-3---5-5-5-5-5---7-7-7-7-7--------------|
E-1-1-1-1-1---------------3--3-3-3-3--5-5-5-5-5--------------|x2

cHORUS---- I don’t wanna look inside myself…..
E------------------------------------------------------------|
B------------------------------------------------------------|
G-------------5-5-5-5-5--------------------------------------|
D-3-3-3-3-3---5-5-5-5-5---5-5-5-5-5---7-7-7-7-7--------------|
A-3-3-3-3-3---3-3-3-3-3---5-5-5-5-5---7-7-7-7-7--------------|
E-1-1-1-1-1---------------3--3-3-3-3--5-5-5-5-5-5------------|x2

pOST-cHORUS
E-------------------------------------------|
B-------------------------------------------|
G-------------------------------------------|
D--------------------0---0------------------|
A---0-30-03---------0-00--------------------|
E------------0-30-03---------0000-3333------|

Verse 2 same as first.---- They teach us how to roll….
Chorus2 same as first---- I don’t wanna look inside myself…..


I don’t have the solo but if you have the ear for it my email is 
I’d love to learn it.
            
Tabs too difficult? Try these video lessons and learn fast.




comments powered by Disqus
↑ Back to top | Tablatures and chords are parodies/interpretations of the original songs. You may use it for private study, scholarship, research or language learning purposes only