» » »

Like A Racecar Tabs (ver.1)

Artists:  A B C D E F G H I J K L M N O P Q R S T U V W X Y Z # 

Like A Racecar Tabs (ver.1)

Hawk Nelson
Rating:
0/5 (0 votes)

Tabs too difficult? Try these video lessons and learn fast.
                Tuning: Drop D

*=Palm mure
~=very quietly

Intro
E--------------------------------------------------------------------------|
B--------------------------------------------------------------------------|
G--------------------------------------------------------------------------|
D--1~---4~---------1--4-1--4--1-4-1-4-1-4---7-7-5--9-7--7-9--7-9--7-9--7-9-|
A--1~---4~---------1--4-1--4--1-4-1-4-1-4---7-7-5--9-7--7-9--7-9--7-9--7-9-|
D--1~---4~---------1--4-1--4--1-4-1-4-1-4---7-7-5--9-7--7-9--7-9--7-9--7-9-|

Verse x2
E-------------------------------------------------------------------------------|
B-------------------------------------------------------------------------------|
G------------------------------3*-3*--3-----------------------------------------|
D--5*-5*--5------3*-3*--3------3*-3*--3--x4--3*-3*--3---------------------------|
A--5*-5*--5--x4--3*-3*--3--x4--1*-1*--1------3*-3*--3--x4-----------------------|
D--5*-5*--5------3*-3*--3--------------------3*-3*--3---------------------------|


Chorus x2
E--------------------------------------------------------------------------|
B--------------------------------------------------------------------------|
G--------------------------------------------------------------------------|
D--1-1-1-1-1-1-1-1-1-1-1-1-1-1-1-1-1---4-4-4-4-4-4-4-4-4-4-4-4-4-4-4-4-4---|
A--1-1-1-1-1-1-1-1-1-1-1-1-1-1-1-1-1---4-4-4-4-4-4-4-4-4-4-4-4-4-4-4-4-4---|
D--1-1-1-1-1-1-1-1-1-1-1-1-1-1-1-1-1---4-4-4-4-4-4-4-4-4-4-4-4-4-4-4-4-4---|

E----------------------------------------------------------------|
B ---------------------------------------------------------------|
G----------------------------------------------------------------|
D-----1--4-1--4--1-4-1-4-1-4---7-7-5--9-7--7-9--7-9--7-9--7-9----|
A-----1--4-1--4--1-4-1-4-1-4---7-7-5--9-7--7-9--7-9--7-9--7-9----|
D-----1--4-1--4--1-4-1-4-1-4---7-7-5--9-7--7-9--7-9--7-9--7-9----|

Verse
Chorus

Verse 2 x2
E-------------------------------------------------------------------------------|
B-------------------------------------------------------------------------------|
G------------------------------3*-3*--3-----------------------------------------|
D--3*-3*--3------5*-5*--5------3*-3*--3--x4--5*-5*--5---------------------------|
A--3*-3*--3--x4--5*-5*--5--x4--1*-1*--1------5*-5*--5--x4-----------------------|
D--3*-3*--3------5*-5*--5--------------------5*-5*--5---------------------------|


Chorus

Bridge
E-----------------------------------------------------------------|
B ----------------------------------------------------------------|
G-----------------------------------------------------------------|
D-----------------------------------------------------------------|  x4
A-----------------------------------------------------------------|
D-----1--4-1--4--1-4-1-4-1-4---7-7-5--9-7--7-9--7-9--7-9--7-9-----|

E----------------------------------------------------------------|
B ---------------------------------------------------------------|
G----------------------------------------------------------------|
D-----1--4-1--4--1-4-1-4-1-4---7-7-5--9-7--7-9--7-9--7-9--7-9----| x4
A-----1--4-1--4--1-4-1-4-1-4---7-7-5--9-7--7-9--7-9--7-9--7-9----|
D-----1--4-1--4--1-4-1-4-1-4---7-7-5--9-7--7-9--7-9--7-9--7-9----|

Outro
E----------------------------------------------------------------|
B ---------------------------------------------------------------|
G----------------------------------------------------------------|
D-----1--4-1--4--1-4-1-4-1-4---7-7-5--9-7--7-9--7-9--7-9--7-9----| x2
A-----1--4-1--4--1-4-1-4-1-4---7-7-5--9-7--7-9--7-9--7-9--7-9----|
D-----1--4-1--4--1-4-1-4-1-4---7-7-5--9-7--7-9--7-9--7-9--7-9----|
            
Tabs too difficult? Try these video lessons and learn fast.




comments powered by Disqus
↑ Back to top | Tablatures and chords are parodies/interpretations of the original songs. You may use it for private study, scholarship, research or language learning purposes only