» » »

My Future Decided Tabs (ver.2)

Artists:  A B C D E F G H I J K L M N O P Q R S T U V W X Y Z # 

My Future Decided Tabs (ver.2)

Hillsongs
Rating:
0/5 (0 votes)

Tabs too difficult? Try these video lessons and learn fast.
                (Intro)
e|---------------------------------------------------------------------|
b|---------------------------------------------------------------------|
g|---------------------------------------------------------------------| 3x
d|-11-11-------------11-11-----12-12-11-11-7-7-7-7-7-7-7-7-7-7-7-7-9-9-|
a|-------9-9-9-9-9-9-------9-9-----------------------------------------|
e|---------------------------------------------------------------------|

e|----------------------------------------------------------------------------------|
b|----------------------------------------------------------------------------------|
g|----------------------------------------------------------------------------------|
d|-11-11-------------11-11-----12-12-11-11-7-7-7-7-7-7-7-7-/14-14-14-14-14-14-14-14-|
a|-------9-9-9-9-9-9-------9-9------------------------------------------------------|
e|----------------------------------------------------------------------------------|


This was my first tab so please comments on what u think of it.JESUS ROCKS
            
Tabs too difficult? Try these video lessons and learn fast.


comments powered by Disqus
↑ Back to top | Tablatures and chords are parodies/interpretations of the original songs. You may use it for private study, scholarship, research or language learning purposes only