» » »

What The World Will Never Take Tabs (ver.4)

Artists:  A B C D E F G H I J K L M N O P Q R S T U V W X Y Z # 

What The World Will Never Take Tabs (ver.4)

Hillsongs
Rating:
0/5 (0 votes)

Tabs too difficult? Try these video lessons and learn fast.
                ----------------------------------------------------------------------------
----------------------------------------------------------------------------

Tuning: Standard

Intro: x4

e|--------------------|----|--------------------|----|
B|--------------------|----|--------------------|----|
G|--------------------|-x2-|--------------------|-x2-|
D|-------7-7-6-6-6h7--|----|-------7-7-6-6-6h7--|----|
A|--0-0---------------|----|--5-5---------------|----|
E|--------------------|----|--------------------|----|

Riff: x2

e|-----------------------------------|
B|-----------------------------------|
G|--4-4-2-4--4-2-4--4-2-4-4b-4-2-----|
D|-----------------------------------|
A|-----------------------------------|
E|-----------------------------------|

Chorus: x1

e|----------------------------------------------------|
B|----------------------------------------------------|
G|--------------------7-7777--11-11--------777--------|
D|--7-77777777777777--7-7777--11-11--9999--777--7-----|
A|--7-77777777777777--5-5555--9--9---9999--555--7-----|
E|--5-55555555555555-----------------7777-------5-----|

e|--------------------------------------------------------|
B|--------------------------------------------------------|
G|-------------------11-X-11-X-11-X-11---------777--------|
D|--7-77777777777777-11-X-11-X-11-X-11--9-X-9--777--7-----|
A|--7-77777777777777-9--X-9--X-9--X-9---9-X-9--555--7-----|
E|--5-55555555555555--------------------7-X-7-------5-----|

Intro: x2

e|--------------------|----|--------------------|----|
B|--------------------|----|--------------------|----|
G|--------------------|-x2-|--------------------|-x2-|
D|-------7-7-6-6-6h7--|----|-------7-7-6-6-6h7--|----|
A|--0-0---------------|----|--5-5---------------|----|
E|--------------------|----|--------------------|----|

Riff: x2

e|-----------------------------------|
B|-----------------------------------|
G|--4-4-2-4--4-2-4--4-2-4-4b-4-2-----|
D|-----------------------------------|
A|-----------------------------------|
E|-----------------------------------|

Chorus: x4

e|----------------------------------------------------|
B|----------------------------------------------------|
G|--------------------7-7777--11-11--------777--------|
D|--7-77777777777777--7-7777--11-11--9999--777--7-----|
A|--7-77777777777777--5-5555--9--9---9999--555--7-----|
E|--5-55555555555555-----------------7777-------5-----|

e|--------------------------------------------------------|
B|--------------------------------------------------------|
G|-------------------11-X-11-X-11-X-11---------777--------|
D|--7-77777777777777-11-X-11-X-11-X-11--9-X-9--777--7-----|
A|--7-77777777777777-9--X-9--X-9--X-9---9-X-9--555--7-----|
E|--5-55555555555555--------------------7-X-7-------5-----|

Solo:

e|------5-----5---5------5-7-7b-7-5------------------------------------|
B|--7-7---7-7---7----6-6-----------------------------------------------|
G|---------------------------------------6-----6---6------8-----8---8--|
D|-----------------------------------7-7---7-7---7----9-9---9-9---9----|
A|---------------------------------------------------------------------|
E|---------------------------------------------------------------------|

e|------5-----5---5------5-7-7b-7-5--|
B|--7-7---7-7---7----6-6-------------|
G|-----------------------------------|
D|-----------------------------------|
A|-----------------------------------|
E|-----------------------------------|

e|----------------------------------------------------------------------|
B|----------------------------------------------------------------------|
G|------6-----6---6------8-----8-----8-----8-----8------8---8---8-------|
D|--7-7---7-7---7----9-9---9-9---9-9---9-9---9-9---9-9-9--9---9---9-----|
A|----------------------------------------------------------------------|
E|----------------------------------------------------------------------|

Chorus: x4

e|----------------------------------------------------|
B|----------------------------------------------------|
G|--------------------7-7777--11-11--------777--------|
D|--7-77777777777777--7-7777--11-11--9999--777--7-----|
A|--7-77777777777777--5-5555--9--9---9999--555--7-----|
E|--5-55555555555555-----------------7777-------5-----|

e|--------------------------------------------------------|
B|--------------------------------------------------------|
G|-------------------11-X-11-X-11-X-11---------777--------|
D|--7-77777777777777-11-X-11-X-11-X-11--9-X-9--777--7-----|
A|--7-77777777777777-9--X-9--X-9--X-9---9-X-9--555--7-----|
E|--5-55555555555555--------------------7-X-7-------5-----|

Outro:

e|-------------------------------------------|
B|-------------------------------------------|
G|--------------777--------------777---------|
D|--7~-77~-77~--777--7~-77~-77~--777--7~-----|
A|--7~-77~-77~--555--7~-77~-77~--555--7~-----|
E|--5~-55~-55~-------5~-55~-55~-------5~-----|

| /  slide up
| \  slide down
| h  hammer-on
| p  pull-off
| ~  vibrato
| +  harmonic
| x  Mute note
============================================================================
            
Tabs too difficult? Try these video lessons and learn fast.




comments powered by Disqus
↑ Back to top | Tablatures and chords are parodies/interpretations of the original songs. You may use it for private study, scholarship, research or language learning purposes only