» » »

Bleed Well Tabs (ver.4)

Artists:  A B C D E F G H I J K L M N O P Q R S T U V W X Y Z # 

Bleed Well Tabs (ver.4)

H.I.M
Rating:
0/5 (0 votes)

Tabs too difficult? Try these video lessons and learn fast.
                        Bleed Well - HIM
-------------------------------------------------------------------------------

Tuning:(DADGBe)

Intro:
e|-----------------------------------------------------------------------|
D|-----------------------------------------------------------------------|
G|-----------5h7-----------5/4-----------5h7-----------------------------|
D|------5h7-----------5h7-----------5h7-------5-4-5-7-5-7----------------|
A|--2-2-----------2-2-----------2-2-----------3-2-3-5-3-5----------------|
D|--2-2-----------2-2-----------2-2--------------------------------------|

Plays Behind intro after first run of intro
e|-----------------------------------------------------------------------|
B|-----------------------------------------------------------------------|
G|-----------------------------------------------------------------------|
D|---------------------------------------------5-4-5-7-5-7---------------|
A|--22222222-22222222-22222222-----------------3-2-3-5-3-5---------------|
D|--22222222-22222222-22222222-------------------------------------------|
pm...................................

Verse:
e|-----------------------------------------------------------------------|
B|-----------------------------------------------------------------------|
G|-----------------------------------------------------------------------|
D|-----------------------------------------------------------------------|
A|--22222222-22222222--22222222-2222-4444-55555555-5555-4444-22222222----|
D|--22222222-22222222--22222222-2222-4444-55555555-5555-4444-22222222----|
pm.................................................................

e|-----------------------------------------------------------------------|
B|-----------------------------------------------------------------------|
G|-----------------------------------------------------------------------|
D|-----------------------------------------------------------------------|
A|-22222222--------------------------------------------------------------|
D|-22222222--------------------------------------------------------------|
pm.......
Slow Lift

Bridge:
e|-----------------------------------------------------------------------|
B|-----------------------------------------------------------------------|
G|-----------------------------------------------------------------------|
D|-----------------------------------------------------------------------|
A|-5--555--7--7-7-7--4--444-5--555--xxxx---------------------------------|
D|-5--555--7--7-7-7--4--444-5--555--xxxx---------------------------------|

e|-----------------------------------------------------------------------|
B|-----------------------------------------------------------------------|
G|-----------------------------------------------------------------------|
D|-----------------------------------------------------------------------|
A|-5--555--7--7-7-7--4--444-5--------------------------------------------|
D|-5--555--7--7-7-7--4--444-5--------------------------------------------|


Chorus:
e|-----------------------------------------------------------------------|
B|-----------------------------------------------------------------------|
G|-----------------------------------------------------------------------|
D|-----------22222222----------------------------------------------------|
A|--22222222-00000000-00000000--5-5-5-4-4-4------------------------------|
D|--22222222----------00000000--5-5-5-4-4-4------------------------------|
                                . .   . .
e|-----------------------------------------------------------------------|
B|-----------------------------------------------------------------------|
G|-----------------------------------------------------------------------|
D|-----------55555555----------------------------------------------------|
A|--22222222-33333333-00000000-------------------------------------------|
D|--22222222----------00000000---7-9-5-7---------------------------------|

e|-----------------------------------------------------------------------|
B|-----------------------------------------------------------------------|
G|-----------------------------------------------------------------------|
D|-----------22222222----------------------------------------------------|
A|--22222222-00000000-00000000--5-5-5-4-4-4------------------------------|
D|--22222222----------00000000--5-5-5-4-4-4------------------------------|
                                . .   . .
e|-----------------------------------------------------------------------|
B|-----------------------------------------------------------------------|
G|-----------------------------------------------------------------------|
D|-----------55555555----------------------------------------------------|
A|--22222222-33333333-00000000---------------2\--------------------------|
D|--22222222----------00000000---7-9-5-7-----2\--------------------------|


PreSolo
e|-----------------------------------------------------------------------|
B|-----------------------------------------------------------------------|
G|-----------------------------------------------------------------------|
D|-----------------------------------------------------------------------|
A|-0-2-----------------------------------2-0-----------------------------|
D|-0-2--9h10p9p0-7h9p7p0-5h7p5p0-4h5p4p0-2-0-----------------------------|

e|-----------------------------------------------------------------------|
B|-----------------------------------------------------------------------|
G|-----------------------------------------------------------------------|
D|-----------------------------------------------------------------------|
A|-/\/-2-----------------------------------2-0---------------------------|
D|-/\/-2--9h10p9p0-7h9p7p0-5h7p5p0-4h5p4p0-2-0---------------------------|

e|-----------------------------------------------------------------------|
B|-----------------------------------------------------------------------|
G|-----------------------------------------------------------------------|
D|-----------------------------------------------------------------------|
A|--2-----------------------------------2-0--/\/-------------------------|
D|--2--9h10p9p0-7h9p7p0-5h7p5p0-4h5p4p0-2-0--/\/-------------------------|

e|-----------------------------------------------------------------------|
B|-----------------------------------------------------------------------|
G|-----------------------------------------------------------------------|
D|-----------------------------------------------------------------------|
A|-2-4-2-5-4-2----not-100%-sure-on-this----------------------------------|
D|-2-4-2-5-4-2-----------------------------------------------------------|

Plays behind Solo
e|-----------------------------------------------------------------------|
B|-----------------------------------------------------------------------|
G|-----------------------------------------------------------------------|
D|-----------------------------------------------------------------------|
A|-----------------2-----------------2-----------------2-----------------|
D|-4h5p4p0-4h5p4p0-2-4h5p4p0-4h5p4p0-2-4h5p4p0-4h5p4p0-2-----------------|

e|-----------------------------------------------------------------------|
B|-----------------------------------------------------------------------|
G|-----------------------------------------------------------------------|
D|-----------------------------------------------------------------------|
A|---------------0-2-----------------------------------------------------|
D|-4h5p4p0-0h2p0-0-2-----------------------------------------------------|

e|-----------------------------------------------------------------------|
B|-----------------------------------------------------------------------|
G|-----------------------------------------------------------------------|
D|-----------------------------------------------------------------------|
A|-----------------2-----------------2-----------------2-----------------|
D|-4h5p4p0-4h5p4p0-2-4h5p4p0-4h5p4p0-2-4h5p4p0-4h5p4p0-2-----------------|

e|-----------------------------------------------------------------------|
B|-----------------------------------------------------------------------|
G|-----------------------------------------------------------------------|
D|-----------------------------------------------------------------------|
A|---------------0-5-----------------------------------------------------|
D|-4h5p4p0-0h2p0-0-5----7(bend-it)---------------------------------------|

No solo Yet

Outro:

The outro is a B, but its a low B, so either 2 guitars, or 7 Strings because I don't know how 
Linde` would be able to play the Pre-Solo

e|-----------------------------------------------------------------------|
B|-----------------------------------------------------------------------|
G|-----------------------------------------------------------------------|
D|-444-4-4-4-------------------------------------------------------------|
A|-222-2-2-2---------------\---------------------------------------------|
D|--------------pick-slide-\---------------------------------------------|
 pm... . . .

|/ slideup
|\ slidedown
|h hammer-on
|p pull-off
|~ viDrato
|+ harmonic
|x Mutenote
===============================================================================
            
Tabs too difficult? Try these video lessons and learn fast.


comments powered by Disqus
↑ Back to top | Tablatures and chords are parodies/interpretations of the original songs. You may use it for private study, scholarship, research or language learning purposes only