» » »

Close To The Flame Bass tabs (ver.2)

Artists:  A B C D E F G H I J K L M N O P Q R S T U V W X Y Z # 

Close To The Flame Bass tabs (ver.2)

H.I.M
Rating:
0/5 (0 votes)

Tabs too difficult? Try these video lessons and learn fast.
                -------------------------------------------------------------------------------
			     Beast and the harlot - Avenged Sevenfold
-------------------------------------------------------------------------------


Tuning:D,A,D,G

1:Intro:
  
G|------|-----|-----|-----|------|------|-----------|
D|------|-----|-----|-----|------|------|-----------|
A|------|--5--|--4--|--3--|------|5--5-5|--4--|--3--|
D|-4----|-----|-----|-----|4--4-4|------|-----------|

2:before of fist guitar solo 

G|--------|--------|--------|--------|
D|--------|--------|--------|--------|
A|--------|--------|--------|--------|
D|00000000|00000000|00000000|00000000|

3:first guitar solo

G|-------|-------|-------|-------|-------|x4 times
D|-------|-------|-------|-------|-------|
A|-------|-------|-------|-------|-------|
D|00-00-3|00-00-5|00-00-6|00-00-5|00-00-3|

4:pre-verse/verse

G|-------|-------|-------|-------|-------|-------|-----------|------|------|
D|-------|-------|-------|-------|-------|-------|-----------|------|------|
A|-------|-------|-------|-------|-------|-------|-----------|------|------|
D|00-00-3|00-00-5|00-00-6|00-00-5|00-00-3|00-00-3|00-00-500-6|00-003|00-005006|

5:pre-choro 1        pre-choro 2

G|-------|-------||-------|--------|--------|
D|-------|-------||-------|--------|--------|
A|-------|-------||-------|--------|--------|
D|8-8-8-8|5-6-7-8||8-8-8-8|-5-6-7-8|-6-7-8-9|

6:choro
x2
G|-----------|-----------|----------|-------------------| x2
D|-----------|-----------|----------|-------------------|
A|-----------|33-3-33-3--|11-1-11-1-|11-1-11-1-11-1-11-1|
D|-33-3-33-3-|-----------|----------|-------------------|

G|----------|----------|----------|-------------------|--------------------|
D|----------|----------|----------|-------------------|--------------------|
A|----------|----------|33-3-33-3-|11-1-11-1-11-1-11--|11-1-11-1|00-0-00-0-|
D|55-5-55-5-|33-3-33-3-|----------|-------------------|--------------------|

7:Inter

G|-----------------|---------------|-------------------|-------------------|
D|-----------------|---------------|-------------------|-------------------|
A|-----------------|---------------|-------------------|-------------------|
D|-----0-----------|--------0------|----------0--------|------0-0-0-0------|

Inter 2 in (this part im no sure!!)
                 x4                        x2
G|--------------|-------------------------||-----|-------|-----------------|
D|--------------|-------------------------||-----|-------|-----------------|
A|--------------|-------------------------||-----|-------|-----------------|
D|00-3-0-5-0-6-0|--6-5-0-6-5-0-6-5-0-6-5-0||--8--|5-6-7-8|-6-7-8-9---------|

8:outro

G|-----------|----------|----------|----------|
D|-----------|----------|----------|----------|
A|-----------|-77-7-77-7|-55-5-55-5|-55-5-55-5|
D|--77-7-77-7|----------|----------|----------|

G|-----------|----------|---------|----------|---------|-------------|
D|-----------|----------|---------|----------|---------|-------------|
A|-----------|----------|-7-7-77-7|-55-5-55-5|55-5-55-5|-33-3-33-3-33|
D|--99-9-99-9|-77-7-77-7|---------|----------|---------|-------------|

structure
  1
  2
  3 
  4
  5 
  6
  4
  5
  6x2
  7
  5
  6
  8
  1
===============================================================================
            
Tabs too difficult? Try these video lessons and learn fast.




comments powered by Disqus
↑ Back to top | Tablatures and chords are parodies/interpretations of the original songs. You may use it for private study, scholarship, research or language learning purposes only