>
 >
Endless Dark 1

Endless Dark 1 Guitar Tabs

H.I.M - Endless Dark 1 chords, tabs, tablatures, lyrics

Guitar lessons | Add/correct | Request | Top 50 tabs Artists:  A B C D E F G H I J K L M N O P Q R S T U V W X Y Z 0-9

Endless Dark 1 Guitar Tabs – H.I.M

CD, Sheet music, Poster

Do you like Endless Dark 1? Share with your friends now
ChordsChords v2Chords v3TabsTabs v2Ukulele
[Endless Dark]
[Love Metal]
[HIM]

Tuning: Standard (Technically)

DONT READ THIS IF YOU DONT CARE. DONT COMPLAIN IF YOU DONT UNDERSTAND
CUZ YOU DINT READ IT.

yur gonna need a 7 string to play this properly..
in my opinion.

**HIM uses 7 string tuning, standard tuning and/or
  2 and a half steps down Drop D tuning. Thats:

AEADGBE (thats a 7 string..which happens to be regular tuning
         with an added low A)
EADGBE (standard..obviously. the high 6 strings of a 7 string guitar)
AEADFB (technically like..Slipknot tuning :P its the low 6 strings
        of a 7 string, opposed to stadard tuning which would be
        the ight 6 strings. i used to think this is how HIM tuned
        simply for the low notes..im really not sure :P)

Personally i think he uses a 7 string..(i think i read it sumwhere
thats why lol). mayb he just used one once..i dno. i play all HIM
Fine on my 7 string. if you have one, your lucky. if not just tune
standard and ignore the bottum string on the score. it'll sound fine.
Mayb this'll help:


            ----------the Low tuning mentioned above (AEADFB).
          __|_
         /    \

         ||||||| <-(the 7 strings of a 7 string guitar. Low to High)

          \____/
             |
             ---------the High tuning mentioned above (EADGBE)

that prolly dint help any :P all im sayin is to play this song your
gonna need the low A and the high E which you cant have both of
without a 7 string lol. but you can actually play the song even
if you dont have one :P

so! yea..i did tab all 7 strings :P it wont be tooo much of an
inconvenience for you lol. just tune standard n ignore the last
string on the score. its more for the curious and those who own
a 7 string.

was this all necessary? :P probably not lol. but now you kno.
and i really didnt want stupid comments like..guitars only have
6 strings budday! n what not :P althought i am gonna get enough
comments on other things im sure..lol**

AGAIN THERS 7 STRINGS CUZ I USE A 7 STRING. IGNORE THE LAST LINE
IF YOU DO NOT OWN A 7 STRING!

also..strumming :P i tried..and symbols are explained at the bottum.
if this tab makes it, a guitar pro will be made for further clarification!
n yea..i just tabbed the riffs out..so what you see you'll probably
have to repeat a couple times. use the Times, they help me alot.

[Endless Dark] - [05:36]

[Riff 1 (Synth..but here you go)] - [00:00] - [00:38]
- -7--7-7--7-5--5-5--5-3--3-3--3-2--2-2--2---|
- --8----8----7----7----5----5----3----3-----|
- ---9----9----7----7----5----5----4----4----|
- -------------------------------------------|
- -------------------------------------------|
- -------------------------------------------|
- -------------------------------------------|

[Riff 2 (Crisp acoustic guitar)] - [00:12] - [00:38]
- ------------------------------------|
- ------------------------------------|
- -4---4---2---2---0---0--------------|
- --5---5---4---4---2---2--4-0--4-0---|
- ---7---7---5---5---2---2----2----2--|
- ----0---0---0---0---0---0----0----0-|
- ------------------------------------|

[Riff 3 (Distortion)] - [00:12] - [00:25]
- -----------------------------|
- --------------[00:23]--------|
- -----------------------------|
- -2~---------------7-77-5-555-|
- -2~-----------12\-7-77-3-333-|
- -0~-----------12\-5-55-3-333-|
- --------------12\------3-333-|

[Riff 4] - [00:25] - [00:38]
- ---------------------------------------|
- ---------------------------------------|
- ---------------------------------------|
- -9-9-97--9-99-5-555-9-9-97--7-77-5-555-|
- -7-7-75--7-77-3-333-7-7-75--7-77-3-333-|
- -7-7-75--7-77-3-333-7-7-75--5-55-3-333-|
- -7-7-75--7-77-3-333-7-7-75-------3-333-|

[Riff 5] - [00:38] - [01:03]
- ----------------------------------------------|
- ----------------------------------------------|
- ----------------------------------------------|
- -99----99----55----55--77--9-9-97--9-99-5-555-|
- -77----77----33----55--55--7-7-75--7-77-3-333-|
- -77----77----33----33--55--7-7-75--7-77-3-333-|
- -77----77----33--------55--7-7-75--7-77-3-333-|

  -----------------------------------------------------|
  -----------------------------------------------------|
  -----------------------------------------------------|
  -99----99----55----55--77--9-9-97--9-999-------------|
  -77----77----33----55--55--7-7-75--7-777-10-10-10-10-|
  -77----77----33----33--55--7-7-75--7-777-------------|
  -77----77----33--------55--7-7-75--7-777-------------|

[Riff 6] - [01:03] - [01:10]
- ---------------------------------|
- ---------------------------------|
- ---------------------------------|
- -5-5-5-5-5-5-5-5-5-5-5-5-7-7-7-7-|
- -3-3-3-3-3-3-3-3-5-5-5-5-5-5-5-5-|
- -3-3-3-3-3-3-3-3-3-3-3-3-5-5-5-5-|
- -3-3-3-3-3-3-3-3---------5-5-5-5-|
PM ...............................

[Riff 7] - [01:10] - [01:16]
- -----------------------------------------------------------------|
- -----------------------------------------------------------------|
- -----------------------------------------------------------------|
- -5-5-5-5-5-5-5-5-5-5-5-5-5-5-5-5-7-7-7-7-7-7-7-7-7-7-7-7-7-7-7-7-|
- -3-3-3-3-3-3-3-3-3-3-3-3-3-3-3-3-5-5-5-5-5-5-5-5-5-5-5-5-5-5-5-5-|
- -3-3-3-3-3-3-3-3-3-3-3-3-3-3-3-3-5-5-5-5-5-5-5-5-5-5-5-5-5-5-5-5-|
- -3-3-3-3-3-3-3-3-3-3-3-3-3-3-3-3-5-5-5-5-5-5-5-5-5-5-5-5-5-5-5-5-|
PM ...............................................

[Riff 8] - [01:16] - [01:29]
- -------------------------------------|
- -------------------------------------|
- -------------------------------------|
- -9-999-5-55-7-777-7-7-75--5-55-7-777-|
- -7-777-5-55-5-555-7-7-75--3-33-5-555-|
- -7-777-3-33-5-555-5-5-53--3-33-5-555-|
- -7-777------5-555---------3-33-5-555-|

[Riff 4] - [01:29] - [01:41]
[Riff 5] - [01:41] - [02:07]
[Riff 6] - [02:07] - [02:14]
[Riff 7] - [02:14] - [02:20]
[Riff 8] - [02:20] - [02:46]

[Riff 9] - [02:46] - [02:58]
- ----
- ----
- ----
- -4~-
- -2~-
- -2~-
- -2~-

[Riff 10] - [02:58] - [03:23]
- --------------------------------------------------------------|
- --------------------------------------------------------------|
- --------------------------------------------------------------|
- -9-9-9\7/9-7-777-777-7/9-9-9\7/9-7-777-777-5-5-555-7-77-7-777-|
- -9-9-9\7/9-7-777-777-7/9-9-9\7/9-7-777-777-5-5-555-5-55-7-777-|
- -7-7-7\5/7-5-555-555-5/7-7-7\5/7-5-555-555-3-3-333-5-55-5-555-|
- ---------------------------------------------------5-55-------|

  ------------------|
  ------------------|
  ------------------|
  -9999999999999999-
  -9999999999999999-
  -7777777777777777-
  ------------------

[Solo Part 1] - [02:56] - [03:10]
- -----------------------------------------------------------------------|
- -----------------------------------------------------------------------|
- -----------------------------------------------------------------------|
- ---------2-------2/4~--4br~--2---2~--2---2-4-4-4br-2---2-2br-----------|
- -----2-5---5-2-5---------------5-------5-------------5-------5-4brbrbr-|
- -10\-------------------------------------------------------------------|
- -----------------------------------------------------------------------|

  ----------------------------|
  ----------------------------|
  -------2-2-----2-2-----2-4~-|
  ---2-4-----2h4-----2h4------|
  -5--------------------------|
  ----------------------------|
  ----------------------------|

[Solo Part 2 (Crazy effect)] - [03:07] - [03:23]
- -------------------------------------------------------------|
- -12~-\--14b-14br----12-12br----12b-12----12brbr----17br-17br-|
- -----------------14---------14--------14--------14-----------|
- -------------------------------------------------------------|
- -------------------------------------------------------------|
- -------------------------------------------------------------|
- -------------------------------------------------------------|

  ------------------------------------------------------------------|
  -17br-15----15-15br-------14b----12-------------------------------|
  ---------16---------16-14-----14----11-14-------------------------|
  -------------------------------------------14br-14br-14b-------12-|
  ---------------------------------------------------------12-14----|
  ------------------------------------------------------------------|
  ------------------------------------------------------------------|

  --------------------------------------------|
  --------------------------------------------|
  --------------------------------------------|
  -12br-12b-pb12-12br------------------12-----|
  --------------------12b~-------12-14----14\-|
  -------------------------12-14--------------|
  --------------------------------------------|

[Solo Part 3 (Overdubbed)] - [03:17] - [03:23]
- ----17-14-------------------17-14-----------------------------------------|
- ----------15-17-------15----------17-15-14h15p15-------------------15-----|
- -16-------------14-16----16----------------------14-14b~-----14-16----16\-|
- --------------------------------------------------------14-16-------------|
- --------------------------------------------------------------------------|
- --------------------------------------------------------------------------|
- --------------------------------------------------------------------------|

[Riff 11] - [03:33] - [03:46]
- ---------------------------------|
- ---------------------------------|
- ---------------------------------|
- -7----7----7---7---7--7--7-7-7-7-|
- -7----7----7---7---7--7--7-7-7-7-| let ring all..forgot the
- -5----5----5---5---5--5--5-5-5-5-| little ~'s sorry :P Lazy!
- ---------------------------------|

[Riff 12 (Sick Acoustic)] - [03:46] - [04:11]
- ---0~-------3---2-0-0---0-0---------0-0-2-0h2---|
- ---0~-------3---3-3-3---1-1p0-------1-1-3-------|
- ---0~-----0-0-0-2-2-2---2-2---------0-0-2-------|
- -2-2~-----0-0-0-0-0-0---2-2---------2-2-0-------|
- -2-2~-----2---2-------0-0-0---0h2---3-3---------|
- -0-0~-0-2-3---3-------------------3-----------2-|
- ------------------------------------------------|

  ---0~-------3---2-0-0---0-0-----------0-0-2-0-0---|
  ---0~-------3---3-3-3---1-0h1p0-------1-1-3-------|
  ---0~-------0-0-2-2-2---2-2-----------0-0-2-------|
  -2-2~-------0-0-0-0-0---2-2-----------2-2-0-------|
  -2-2~---------2-------0-0-0-----0h2---3-3---------|
  -0-0~-0-2-3---3---------------------3-----------2-|
  --------------------------------------------------|

  ---0~-------3---2-0-0---0-0---------0-0-2-0h2---|
  ---0~-------3---3-3-3---1-1p0-------1-1-3-------|
  ---0~-----0-0-0-2-2-2---2-2---------0-0-2-------|
  -2-2~-----0-0-0-0-0-0---2-2---------2-2-0-------|
  -2-2~-----2---2-------0-0-0---0h2---3-3---------|
  -0-0~-0-2-3---3-------------------3-----------2-|
  ------------------------------------------------|

  ---0~-------3-3-2-2---7~-|
  ---0~-------3-3-3-3---8~-|
  ---0~-------0-0-2-2---9~-|
  -2-2~-------0-0-0-0---9~-|
  -2-2~-------2-2-----0-7~-|
  -0-0~-0-2-3-3-3----------|
  -------------------------|

[Riff 8] - [04:11] - [04:36]
[Riff 4] - [04:36] - [05:02]
[Riff 1 + 2] - [05:02] - [05:14]

[Riff 13] - [05:14] - 05:34]
- ----------------------                                ---|
- ----------------------                                ---|
- ---------------------- please not that this note here ---|
- -99----99----99-99-9~- is the same as this -->        -2-|
- -77----77----77-77-7~- its up to you. it go back n    -2-|
- -77----77----77-77-7~- forth wherever its easier.     -0-|
- -77----77----77-77-7~-                                ---|


see now i get to the end of the song n im like..shit.
theres chords throughout this whole song..
so here you are:

DONT GET THESE RIFFS MIXED UP WITH THE ONES ABOVE!

[Riff 1] - [00:38] - [01:03]
- ---0-000-2-22-0h2p0---------0-000-2-22-0h2p0-------0-0-000-3-33-2-222-|
- ---0-000-3-33-------3-1-0---0-000-3-33-------3-1-0-1-1-111-3-33-3-333-|
- ---0-000-2-22---------------0-000-2-22-------------0-0-000-0-00-2-222-|
- -2-2-222-0-00-------------2-2-222-0-00-------------2-2-222-0-00-0-000-|
- -2-2-222------------------2-2-222------------------3-3-333-2-22-------|
- -0-0-000------------------0-0-000--------------------------3-33-------|
- ----------------------------------------------------------------------|

[Riff 2] - [01:03] - [01:10]
- -0-0-000-3-33-2-222-|
- -1-1-111-3-33-3-333-|
- -0-0-000-0-00-2-222-|
- -2-2-222-0-00-0-000-|
- -3-3-333-2-22-------|
- ---------3-33-------|
- --------------------|

[Riff 3] - [01:10] - [01:16]
- -0-0-000-0-000-000-2-2-222-2-222-222-|
- -1-1-111-1-111-111-3-3-333-3-333-333-|
- -0-0-000-0-000-000-2-2-222-2-222-222-|
- -2-2-222-2-222-222-0-0-000-0-000-000-|
- -3-3-333-3-333-333-------------------|
- -------------------------------------|
- -------------------------------------|

[Riff 4] - [01:16] - [01:29]
- -0-0-000-3-33-2-222-0-0-000-0-00-2-222-|
- -0-0-000-3-33-3-333-1-1-111-1-11-3-333-|
- -0-0-000-0-00-2-222-2-2-222-0-00-2-222-|
- -2-2-222-0-00-0-000-2-2-222-2-22-0-000-|
- -2-2-222-2-22-------0-0-000-3-33-------|
- -0-0-000-3-33--------------------------|
- ---------------------------------------|

[Riff 1] - [01:41] - [02:07]
[Riff 2] - [02:07] - [02:13]
[Riff 3] - [02:13] - [02:20]
[Riff 4] - [02:20] - [02:45]

[Riff 5] - [03:10] - [03:24]
- -7-7-777-5-555-555-7-7-777-5-555-555-3-3-333-5-55-5-555-7~-|
- -7-7-777-5-555-555-7-7-777-5-555-555-3-3-333-5-55-5-555-7~-|
- -8-8-888-6-666-666-8-8-888-6-666-666-4-4-444-7-77-6-666-8~-|
- -9-9-999-7-777-777-9-9-999-7-777-777-5-5-555-7-77-7-777-9~-|
- -9-9-999-7-777-777-9-9-999-7-777-777-5-5-555-5-55-7-777-9~-|
- -7-7-777-5-555-555-7-7-777-5-555-555-3-3-333-5-55-5-555-7~-|

[Riff 4] - [04:11] - [04:36]

[Riff 6] - [04:36] - [05:01]
- -0-0-0-2--0-0-0-0-000-0-0-0-2--0-0-0-0-000-|
- -0-0-0-3--0-0-0-1-111-0-0-0-3--1-1-1-1-111-|
- -0-0-0-2--0-0-0-0-000-0-0-0-2--2-2-2-0-000-|
- -2-2-2-0--2-2-2-2-222-2-2-2-0--2-2-2-2-222-|
- -2-2-2----2-2-2-3-333-2-2-2----0-0-0-3-333-|
- -0-0-0----0-0-0-------0-0-0----------------|
- -------------------------------------------|

ther. done. wow this turned out big.

[Symbols (In order of occurance)]
\     Slide Downwards
PM... Palmute Notes With Dots (.) Under Them
~     Let Note Ring
/     Slide Upwards
br    Bend And Release
h     Hammer On
b     Bend But Don't Release
p     Pull Off

i typed way too much already..so why not type some more.
dont judge this or rate on the typing..look at the other tabs for
this song..they're rediculous. and dont judge cuz i tabbed it for a 7
string either..you can still play on a regular 6..like i've gone over.

this is just like..a bomb song n it wanst done very good i decided to do it
myself..im no chords expert either so good luck with those lol.

this Actually just took me like the last i dno..4 r 5 hours of my night :P
please at least let it onto the site n get bad rates if anytihng hahah
dont cut it off in the approval list :P

:) have funn





Comments


Popular H.I.M tabs & chords
Close To The Flame Bass Tabs
In Joy And Sorrow Bass Tabs
Face Of God Chords
Buried Alive By Love 6 Tabs
Circle Of Fear (Intro) Tabs
Love You Like I Do Tabs
Vampire Heart 2 Tabs
Vimpire Heart Intro Tabs
Scared To Death Ukulele
Sweet Pandemonium Ukulele


Song lyrics



↑ Back to top | Tablatures and chords are parodies/interpretations of the original songs. You may use it for private study, scholarship, research or language learning purposes only
© 2014 AZChords.com Contact us | Privacy policy | DMCA | Add/correct tabs | Request tabs | Top 50 tabs