» » »

In The Nightside Of Eden Bass tabs (ver.1)

Artists:  A B C D E F G H I J K L M N O P Q R S T U V W X Y Z # 

In The Nightside Of Eden Bass tabs (ver.1)

H.I.M
Rating:
0/5 (0 votes)
Tabs too difficult? Try these video lessons and learn fast.
                 IN THE NIGHTSIDE OF EDEN-H.I.M 

Standard Tuning: E A D G 

INTRO

G(----------------------( 
D(----------------------( 
A(----------------------( 
E(-0-0-0-0-0-0-0-0-0-0-0( 

G(----------------------(
D(----------7--------5-4(
A(-1-1-/7----7-6-5------( X3 
E(----------------------(

G(--------------------(
D(--------------------(
A(--------------------( 
E(-5-5-5-5-5-5-4-3-3-3( 


VERSE1 

G(-------------------(
D(-----------7----5-4(
A(-1-1-/7--7---6-5---( X3 
E(-------------------(

G(--------------------(
D(--------------------(
A(--------------------( 
E(-5-5-5-5-5-5-4-3-3-3(

G(--------------------(
D(-----------7-----5-4(
A(-1-1-/7--7---6-5----( X3 
E(--------------------(

G(-----------------(---------------------(
D(-----------------(---------------------(
A(-----------------(---------------------(
E(-0-0-0-0-0-0-0-0-(-5-5-5-5-5-5-5-4-4-3~(  


CHORUS 

G(---------------(   
D(---------------(     
A(-3-3---------3~( X3
E(-----3-0-5-3---( 

(---- ------(
(-5-5-4-3-3-(
(-----------(
(-----------(

G(---------------(   
D(---------------(     
A(-3-3---------3~( X2
E(-----3-0-5-3---( 


(---- ------(
(-5-5-4-3-3-(
(-----------(  X2
(-----------(

G(--------------------(
D(----------7------5-4(
A(-1-1-/7--7-6-5------( X3 
E(--------------------(

G(--------------------(
D(--------------------(
A(--------------------( 
E(-5-5-5-5-5-5-4-3-3-3(

VERSE2

G(--------------------(
D(----------7------5-4(
A(-1-1-/7--7-6-5------( X3 
E(--------------------(

G(--------------------(
D(--------------------(
A(--------------------( 
E(-5-5-5-5-5-5-4-3-3-3(

G(--------------------(
D(----------7------5-4(
A(-1-1-/7--7-6-5------( X3 
E(--------------------(


G(-----------------(---------------------(
D(-----------------(---------------------(
A(-----------------(---------------------(
E(-0-0-0-0-0-0-0-0-(-5-5-5-5-5-5-5-4-4-3~(  

CHORUS

G(--------------(   
D(--------------(     
A(-3-3--------3~( X3
E(-----3-0-5-3--( 

(--------------(
(-5-5-4-3-3----(
(--------------(  
(--------------(

G(---------------(   
D(---------------(     
A(-3-3---------3~( X2
E(-----3-0-5-3---( 



G(---- ---------(
D(--------------(   X2
A(-5-5-4-3-3----(
E(--------------(


BRIDGE


G(-------------------------------------(
D(-------------------------------------(
A(--------------------------------9----(
E(-9-9-9-9-9-9-9-9-9-9-9-9-9-9-9-------(   X2

G(------------------------------------(---------------(
D(------------------------------------(---------------(
A(-2-2-2-2-2-2-2-2-2-2-2-2-2-2-2-2-22-(---------------(
E(------------------------------------(-9-9-9-9-9-9-9-(

OUTRO

G(---------------(   
D(---------------(     
A(-3-3---------3~( X3
E(-----3-0-5-3---( 

G(---- ---------(
D(--------------(   
A(-5-5-4-3-3----(
E(--------------(

G(----------------(   
D(----------------(     
A(-3-3---------3~-( X2
E(-----3-0-5-3----(

G(---- ---------(
D(--------------(   
A(-5-5-4-3-3----(
E(--------------(

G(----------------(   
D(----------------(     
A(-3-3---------3~-( X3
E(-----3-0-5-3----(


G(---- ---------(
D(--------------(   X2
A(-5-5-4-3-3----(
E(--------------(

OUTRO

G(----------------------------------------(
D(----------------------------------------(
A(---------------------------------9------(
E(-9-9-9-9-9-9-9-9-9-9-9-9-9-9-9----------(   X5

G(-------------------------------------(
D(-------------------------------------(
A(-------------------------------------(
E(-1-1-2-2-1-1-2-2-1-1-2-2-1-1-1-1-2-2-(
SLOW DOWN WHEN VILLE VALO STARTS TO SING 'FOREVER WE ARE....' RIGHT AT THE END   

WHILE THAT'S IT. ITS NOT 100% BUT NEAR ENOUGH TO 100%!
            
Tabs too difficult? Try these video lessons and learn fast.


comments powered by Disqus
↑ Back to top | Tablatures and chords are parodies/interpretations of the original songs. You may use it for private study, scholarship, research or language learning purposes only