>
 >
Our Diabolikal Rapture

Our Diabolikal Rapture Bass Tabs

H.I.M - Our Diabolikal Rapture chords, tabs, tablatures, lyrics

Guitar lessons | Add/correct | Request | Top 50 tabs Artists:  A B C D E F G H I J K L M N O P Q R S T U V W X Y Z 0-9

Our Diabolikal Rapture Bass Tabs – H.I.M

CD, Sheet music, Poster

Do you like Our Diabolikal Rapture? Share with your friends now
Bass Tabs
#------------------------------------------------------------------------------##

                        OUR DIABOLIKAL RAPTURE (Bassline)
                              As recorded by H.I.M.
                (From the 1998 Album GREATEST LOVESONGS VOL. 666)

Words by Ville Valo

Music by H.I.M.

Gtr I (B E A D) - 'Untitled'
Gtr II (B E A D F# B) - 'Untitled'
Gtr III (B E A D) - 'Untitled'

 Intro
  Q=150
 4/4
  Gtr I
  Wx8
|--------|
|--------|
|--------|
|--------|


    $
     E E E  E   E  E  E E     E  E  E  E  H
||------------------------|--------------------|
||o-----------------------|--------------------|
||o-----------------------|--------------------|
||--15p0-0-14p==0--0-12p0-|---0--0-10-12-10----|
|
|   Gtr II
|    <
|    H         +H            +W
||--19--------(19)--------|-(19)---------------|
||o-20--------(20)--------|-(20)---------------|
||--21--------(21)--------|-(21)---------------|
||------------------------|--------------------|
||o-----------------------|--------------------|
||------------------------|--------------------|


    E  E E  E E E  E E     E  E  E  E  H
|----------------------|--------------------|
|----------------------|--------------------|
|----------------------|--------------------|
|--15p=0-0-14p0-0-12p0-|---0--0-10-12-10----|
|
|  +W                     +W
|-(19)-----------------|-(19)---------------|
|-(20)-----------------|-(20)---------------|
|-(21)-----------------|-(21)---------------|
|----------------------|--------------------|
|----------------------|--------------------|
|----------------------|--------------------|


   E E E  E   E  E  E E     E  E  E  E  H
|-----------------------|--------------------|
|-----------------------|--------------------|
|-----------------------|--------------------|
|-15p0-0-14p==0--0-12p0-|---0--0-10-12-10----|
|
|  <
|  H         +H            +W
|-17--------(17)--------|-(17)---------------|
|-19--------(19)--------|-(19)---------------|
|-19--------(19)--------|-(19)---------------|
|-----------------------|--------------------|
|-----------------------|--------------------|
|-----------------------|--------------------|


    E  E E  E E E  E E     E  E  E  E  H
|----------------------|---------------------||
|----------------------|--------------------o||
|----------------------|--------------------o||
|--15p=0-0-14p0-0-12p0-|---0--0-10-12-10-----||
|
|  +W                     +W
|-(17)-----------------|-(17)----------------||
|-(19)-----------------|-(19)---------------o||
|-(19)-----------------|-(19)----------------||
|----------------------|---------------------||
|----------------------|--------------------o||
|----------------------|---------------------||


   Verse
     E E E E   E  E E E     E  E E E E E E E
||----------------------|--------------------|
||o---------------------|--------------------|
||o--7-7-7-7---7--7-7-7-|---7--7-7-7-7-7-7-7-|
||----------------------|--------------------|
|
|    <
|    H        +H           +W
||--19-------(19)-------|-(19)---------------|
||o-20-------(20)-------|-(20)---------------|
||--21-------(21)-------|-(21)---------------|
||----------------------|--------------------|
||o---------------------|--------------------|
||----------------------|--------------------|


   E E E E   E  E E E     E  E E E E E E E
|---------------------|---------------------|
|---------------------|---------------------|
|--7-7-7-7---7--7-7-7-|---7--7-7-7-7-7-7-7--|
|---------------------|---------------------|
|
|  <
|  H        +H           +W
|-17-------(17)-------|-(17)----------------|
|-19-------(19)-------|-(19)----------------|
|-19-------(19)-------|-(19)----------------|
|---------------------|---------------------|
|---------------------|---------------------|
|---------------------|---------------------|


   E E E E   E  E E E     E  E E E E E E E
|---------------------|--------------------|
|---------------------|--------------------|
|--7-7-7-7---7--7-7-7-|---7--7-7-7-7-7-7-7-|
|---------------------|--------------------|
|
|  <
|  H        +H           +W
|-19-------(19)-------|-(19)---------------|
|-20-------(20)-------|-(20)---------------|
|-21-------(21)-------|-(21)---------------|
|---------------------|--------------------|
|---------------------|--------------------|
|---------------------|--------------------|


    E  E E E E E E E     E  E E E E E E E
|--------------------|---------------------||
|--------------------|--------------------o||
|---7--7-7-7-7-7-7-7-|---7--7-7-7-7-7-7-7-o||
|--------------------|---------------------||
|
|  +W                   +W
|-(19)---------------|-(19)----------------||
|-(20)---------------|-(20)---------------o||
|-(21)---------------|-(21)----------------||
|--------------------|---------------------||
|--------------------|--------------------o||
|--------------------|---------------------||


     E E E E   E  E E E     E  E E E E E E E
||----------------------|--------------------|
||o--5-----4------------|--------------------|
||o----7-7-----7--7-7-7-|---7--7-7-7-7-7-7-7-|
||----------------------|--------------------|
|
|    <
|    H        +H           +W
||--19-------(19)-------|-(19)---------------|
||o-20-------(20)-------|-(20)---------------|
||--21-------(21)-------|-(21)---------------|
||----------------------|--------------------|
||o---------------------|--------------------|
||----------------------|--------------------|


   E E E E   E  E E E     E  E E E E E E E
|---------------------|----------------------||
|--------4------------|---------------------o||
|--7-7-7-----7--7-7-7-|---7--7-7-7-7-7-7-7--o||
|---------------------|----------------------||
|
|  <
|  H        +H           +W
|-17-------(17)-------|-(17)-----------------||
|-19-------(19)-------|-(19)----------------o||
|-19-------(19)-------|-(19)-----------------||
|---------------------|----------------------||
|---------------------|---------------------o||
|---------------------|----------------------||


   E E E E   E  E E E     E  E E E E E E E
|---------------------|--------------------|
|---------------------|--------------------|
|--7-7-7-7---7--7-7-7-|---7--7-7-7-7-7-7-7-|
|---------------------|--------------------|
|
|  <
|  H        +H           +W
|-19-------(19)-------|-(19)---------------|
|-20-------(20)-------|-(20)---------------|
|-21-------(21)-------|-(21)---------------|
|---------------------|--------------------|
|---------------------|--------------------|
|---------------------|--------------------|


   E E E E   E  E E E     E  E E E E E E E
|---------------------|--------------------|
|---------------------|--------------------|
|--7-7-7-7---7--7-7-7-|---7--7-7-7-7-7-7-7-|
|---------------------|--------------------|
|
|  <
|  H        +H           +W
|-17-------(17)-------|-(17)---------------|
|-19-------(19)-------|-(19)---------------|
|-19-------(19)-------|-(19)---------------|
|---------------------|--------------------|
|---------------------|--------------------|
|---------------------|--------------------|


   E E E E   E  E E E     E  E E E E E E E
|---------------------|--------------------|
|---------------------|--------------------|
|--7-7-7-7---7--7-7-7-|---7--7-7-7-7-7-7-7-|
|---------------------|--------------------|
|
|  <
|  H        +H           +W
|-19-------(19)-------|-(19)---------------|
|-20-------(20)-------|-(20)---------------|
|-21-------(21)-------|-(21)---------------|
|---------------------|--------------------|
|---------------------|--------------------|
|---------------------|--------------------|


    E  E E E E E E E     E  E E E E E E E
|--------------------|--------------------||
|--------------------|--------------------||
|---7--7-7-7-7-7-7-7-|---7--7-7-7-7-7-7-7-||
|--------------------|--------------------||
|
|  +W                   +W
|-(19)---------------|-(19)---------------||
|-(20)---------------|-(20)---------------||
|-(21)---------------|-(21)---------------||
|--------------------|--------------------||
|--------------------|--------------------||
|--------------------|--------------------||


 Chorus
   H.          Q     +W             H.      Q     +W
|-----------------|-------------|--------------|---------|
|-----------------|-------------|--------------|---------|
|-----------------|-------------|--------------|---------|
|--5-----------5--|--(5)--------|---5-------5--|--(5)----|
|
|  <
|  H      +H         +W            +W             +W
|-20-----(20)-----|-(20)--------|-(20)---------|-(20)----|
|-22-----(22)-----|-(22)--------|-(22)---------|-(22)----|
|-21-----(21)-----|-(21)--------|-(21)---------|-(21)----|
|-----------------|-------------|--------------|---------|
|-----------------|-------------|--------------|---------|
|-----------------|-------------|--------------|---------|


   E E E E   E  E E E     E  E E E E E E E
|---------------------|--------------------|
|---------------------|--------------------|
|--7-7-7-7---7--7-7-7-|---7--7-7-7-7-7-7-7-|
|---------------------|--------------------|
|
|  <
|  H        +H           +W
|-19-------(19)-------|-(19)---------------|
|-20-------(20)-------|-(20)---------------|
|-21-------(21)-------|-(21)---------------|
|---------------------|--------------------|
|---------------------|--------------------|
|---------------------|--------------------|


    E  E E E E E E E     E  E E E E E E E
|--------------------|--------------------|
|--------------------|--------------------|
|---7--7-7-7-7-7-7-7-|---7--7-7-7-7-7-7-7-|
|--------------------|--------------------|
|
|  +W                   +W
|-(19)---------------|-(19)---------------|
|-(20)---------------|-(20)---------------|
|-(21)---------------|-(21)---------------|
|--------------------|--------------------|
|--------------------|--------------------|
|--------------------|--------------------|


   H.          Q     +W             H.      Q     +W
|-----------------|-------------|--------------|---------|
|-----------------|-------------|--------------|---------|
|-----------------|-------------|--------------|---------|
|--5-----------5--|--(5)--------|---5-------5--|--(5)----|
|
|  <
|  H      +H         +W            +W             +W
|-20-----(20)-----|-(20)--------|-(20)---------|-(20)----|
|-22-----(22)-----|-(22)--------|-(22)---------|-(22)----|
|-21-----(21)-----|-(21)--------|-(21)---------|-(21)----|
|-----------------|-------------|--------------|---------|
|-----------------|-------------|--------------|---------|
|-----------------|-------------|--------------|---------|


                                                         D.S.
    H.          Q     +W             H.      Q     +H     H
|------------------|-------------|--------------|---------------||
|------------------|-------------|--------------|---------------||
|------------------|-------------|--------------|---------------||
|---8-----------8--|--(8)--------|---8-------8--|--(8)----8\----||
|
|   H      +H         +W            +W             +W
|-(20)----(20)-----|-(20)--------|-(20)---------|-(20)----------||
|--20-----(20)-----|-(20)--------|-(20)---------|-(20)----------||
|------------------|-------------|--------------|---------------||
|------------------|-------------|--------------|---------------||
|------------------|-------------|--------------|---------------||
|------------------|-------------|--------------|---------------||


   Interlude
    Gtr III
      H     H        W           W          W     7x
||---12----------|-------------|----------|-------||
||o--------------|-------------|----------|------o||
||o--------------|-------------|----------|------o||
||---------------|-------------|----------|-------||
|
|     >
|    +W             +W           W          W     7x
||--(20)---------|-(20)--------|----------|-------||
||o-(20)---------|-(20)--------|----------|------o||
||---------------|-------------|----------|-------||
||---------------|-------------|----------|-------||
||o--------------|-------------|----------|------o||
||---------------|-------------|----------|-------||


                                  Gtr I
   H    H      W          H.      Q    +E  E E E E E E E
|-12---------|----------|------------|--------------------||
|------------|----------|------------|--------------------||
|------------|----------|------------|--------------------||
|------------|----------|---------8--|-(8)-8-8-8-8-8-8-8--||


   Out-Chorus
     H      E  E  Q     +E  E Q  Q  Q     H     E E  Q     +E   E  Q   Q   Q
||-------------------|-----------------|----------------|---------------------|
||o------------------|-----------------|----------------|---------------------|
||o------------------|-----------------|----------------|---------------------|
||---5------5--5--3--|--(3)-3-3--3--3--|--8-----8-8-10--|-(10)-10-10--10--10--|
|
|   Gtr II
|    <
|    H     +Q     Q     +W                H.         Q     +W
||--17----(17)---15--|-(15)------------|-12---------17--|-(17)----------------|
||o-17----(17)---15--|-(15)------------|-13---------15--|-(15)----------------|
||-------------------|-----------------|----------------|---------------------|
||-------------------|-----------------|----------------|---------------------|
||o------------------|-----------------|----------------|---------------------|
||-------------------|-----------------|----------------|---------------------|


   H      E  E  Q     +E  E Q  Q  Q
|------------------|-----------------|
|------------------|-----------------|
|------------------|-----------------|
|--5------5--5--3--|--(3)-3-3--3--3--|
|
|  <
|  H     +Q     Q     +W
|-17----(17)---15--|-(15)------------|
|-17----(17)---15--|-(15)------------|
|------------------|-----------------|
|------------------|-----------------|
|------------------|-----------------|
|------------------|-----------------|


   H     E E  Q     +E   E  E  E  E  E Q
|----------------|--------------------------||
|----------------|-------------------------o||
|----------------|-------------------------o||
|--8-----8-8-10--|-(10)-12h13p12h13p12-8----||
|
|  H.         Q     +W
|-12---------17--|-(17)---------------------||
|-13---------15--|-(15)--------------------o||
|----------------|--------------------------||
|----------------|--------------------------||
|----------------|-------------------------o||
|----------------|--------------------------||


   H      E  E  Q     +E  E Q  Q  Q
|------------------|-----------------|
|------------------|-----------------|
|------------------|-----------------|
|--5------5--5--3--|--(3)-3-3--3--3--|
|
|  <
|  H     +Q     Q     +W
|-17----(17)---15--|-(15)------------|
|-17----(17)---15--|-(15)------------|
|------------------|-----------------|
|------------------|-----------------|
|------------------|-----------------|
|------------------|-----------------|


   H     E E  Q     +E   E  E  E  E  E  E E
|----------------|---------------------------|
|----------------|---------------------------|
|----------------|---------------------------|
|--8-----8-8-10--|-(10)-10-10-12h13p12-10-8--|
|
|  H.         Q     +W
|-12---------17--|-(17)----------------------|
|-13---------15--|-(15)----------------------|
|----------------|---------------------------|
|----------------|---------------------------|
|----------------|---------------------------|
|----------------|---------------------------|


   H      E  E  Q     +E  E Q  Q  Q
|------------------|-----------------|
|------------------|-----------------|
|------------------|-----------------|
|--5------5--5--3--|--(3)-3-3--3--3--|
|
|  <
|  H     +Q     Q     +W
|-17----(17)---15--|-(15)------------|
|-17----(17)---15--|-(15)------------|
|------------------|-----------------|
|------------------|-----------------|
|------------------|-----------------|
|------------------|-----------------|


   H     E E  Q     +E   E  E  E  E  E Q
|----------------|-------------------------|
|----------------|-------------------------|
|----------------|-------------------------|
|--8-----8-8-10--|-(10)-12h13p12h13p12-8---|
|
|  H.         Q     +W
|-12---------17--|-(17)--------------------|
|-13---------15--|-(15)--------------------|
|----------------|-------------------------|
|----------------|-------------------------|
|----------------|-------------------------|
|----------------|-------------------------|


   H      E  E  Q     +E  E Q  Q  Q     H     E E  Q     +H      +H
|------------------|-----------------|----------------|------------------|
|------------------|-----------------|----------------|------------------|
|------------------|-----------------|----------------|------------------|
|--5------5--5--3--|--(3)-3-3--3--3--|--8-----8-8-10--|-(10)----(10)\----|
|
|  <                                                      >
|  H     +Q     Q     +W                H.         Q     +W
|-17----(17)---15--|-(15)------------|-12---------17--|-(17)-------------|
|-17----(17)---15--|-(15)------------|-13---------15--|-(15)-------------|
|------------------|-----------------|----------------|------------------|
|------------------|-----------------|----------------|------------------|
|------------------|-----------------|----------------|------------------|
|------------------|-----------------|----------------|------------------|


    W             W           W          W
|-------------|-------------|----------|------*|
|-------------|-------------|----------|------*|
|-------------|-------------|----------|------*|
|-------------|-------------|----------|------*|
|
|  +W            +W           W          W
|-(17)--------|-(17)--------|----------|------*|
|-(15)--------|-(15)--------|----------|------*|
|-------------|-------------|----------|------*|
|-------------|-------------|----------|------*|
|-------------|-------------|----------|------*|
|-------------|-------------|----------|------*|


Duration Legend
---------------
W - whole; H - half; Q - quarter; E - 8th; S - 16th; T - 32nd; X - 64th; a - acciaccatura
+ - note tied to previous; . - note dotted; .. - note double dotted
Uncapitalized letters represent notes that are staccato (1/2 duration)
Irregular groupings are notated above the duration line
Duration letters will always appear directly above the note/fret number it represents the
duration for.  Duration letters with no fret number below them represent rests.  Multi-
bar rests are notated in the form Wxn, where n is the number of bars to rest for.  Low
melody durations appear below the staff

Tablature Legend
----------------
 h   - hammer-on
 p   - pull-off
 b   - bend
 pb  - pre-bend
 r   - bend release (if no number after the r, then release immediately)
 /\  - slide into or out of (from/to "nowhere")
 s   - legato slide
 S   - shift slide
  - natural harmonic
[n]  - artificial harmonic
n(n) - tapped harmonic
 ~   - vibrato
 tr  - trill
 T   - tap
 TP  - trem. picking
 PM  - palm muting
\n/  - tremolo bar dip; n = amount to dip
 \n  - tremolo bar down
 n/  - tremolo bar up
/n\  - tremolo bar inverted dip
 =   - hold bend; also acts as connecting device for hammers/pulls
 <>  - volume swell (louder/softer)
 x   - on rhythm slash represents muted slash
 o   - on rhythm slash represents single note slash

Misc Legend
-----------
 |  - bar
||  - double bar
||o - repeat start
o|| - repeat end
*|  - double bar (ending)
 :  - bar (freetime)
 $  - Segno
 &  - Coda
Tempo markers -  = BPM(8/16=s8/s16), where s8 = swing 8ths, s16 = swing 16ths





Comments


Popular H.I.M tabs & chords
Heartache Every Moment Bass Tabs
Killing Loneliness Chords
Dark Secret Love Tabs
Death Is In Love With Us 1 Tabs
Its All Tears Tabs
Right Here In My Arms 3 Tabs
Your Sweet 666 Tabs
Face Of God Ukulele
Katherine Wheel Ukulele
Play Dead Ukulele


Song lyrics



↑ Back to top | Tablatures and chords are parodies/interpretations of the original songs. You may use it for private study, scholarship, research or language learning purposes only
© 2014 AZChords.com Contact us | Privacy policy | DMCA | Add/correct tabs | Request tabs | Top 50 tabs