>
 >
Venus Doom

Venus Doom Ukulele

H.I.M - Venus Doom chords, tabs, tablatures, lyrics

Guitar lessons | Add/correct | Request | Top 50 tabs Artists:  A B C D E F G H I J K L M N O P Q R S T U V W X Y Z 0-9

Venus Doom Ukulele – H.I.M

CD, Sheet music, Poster

Do you like Venus Doom? Share with your friends now
ChordsChords v2TabsUkulele
             Venus Doom - HIM
-------------------------------------------------------------------------------

Tuning: (B F# B E G# c#)

c#|-----------------------------------------------------------------------|
G#|-----------------------------------------------------------------------|
E |-----------------------------------------------------------------------|
B |-----------------------------------------------------------------------|
F#|-0-2-0---3---0-2-0-0-3--0-2-0--3--0-2-0--3--0-2-0-0-3--0-2-0--3--------|
B |-0-2-0---3---0-2-0-0-3--0-2-0--3--0-2-0--3--0-2-0-0-3--0-2-0--3--------|
    . . .       . . . .    . . .     . . .     . . . .    . . .
                                     x3
c#||-------------------------------||--------------|
G#||O-----------------------------O||--------------|
E ||-------------------------------||--------------|
B ||-------------------------------||--------------|
F#||O--------------3----------555-O||--2--3--2--0--|
B ||--0-0-2h3p2p0-----2h3p2p2-555--||--2--3--2--0--|

Verse:
c#|------------------------------------------------|
G#|------------------------------------------------|
E |------------------------------------------------|
B |------------------55555555----------------------|
F#|---------55555555-33333333-00000000-22222222----|
B |--3~-3~--55555555----------00000000-22222222----|
            ........ ........ ........ start lifting
insanity    She'll be the light to guide you back home...

c#|-----------------------------------------------------------------------|
G#|-----------------------------------------------------------------------|
E |-----------------------------------------------------------------------|
B |-----------------------------------------------------------------------|
F#|-----------------------------------------------------------2222--------|
B |-----------------------------------------------------------2222-3------|
                                                              ....
just give her a kiss worth dying for...         and open your arms

Chorus
c#||------------------------------------------------------------------------|
G#||O-----------------------------------------------------------------------|
E ||--77777777-99999999-10-10-10-10-10-10-10-10--12-12-12-12-12-12-12-12----|
B ||------------------------------------------------------------------------|
F#||O-55555555-77777777-8--8--8--8--8--8--8--8---10-10-10-10-10-10-10-10----|
B ||------------------------------------------------------------------------|

c#|--------------||----------|
G#|-------------O||----------|
E |--------------||----------|
B |-3-3-3-3-3/5--||----------|
F#|-1-1-1-1-1/3-O||-2-3-2-0--|
B |--------------||-2-3-2-0--|


Pre Solo
c#|-----------------------------------------------------------------------|
G#|-----------------------------------------------------------------------|
E |-pick-/-----7---7-5------------10-9---9-7------------------------------|
B |-slide/-0-0---0-----0-0-5---0-------0----------------------------------|
F#|------------------------3------------------0-0-5-----------------------|
B |-------------------------------------------0-0-5-----------------------|
           . .   .     . .    .      .        . .                                        
This also plays behind the solo
c#|-----------------------------------------------------------------------|
G#|-----------------------------------------------------------------------|
E |-----------------------------------------------------------------------|
B |----------------------x-5----------------------------------------------|
F#|-5-8-7-5-7-5-3-5--5-3-x-3--5-8-7-5-7-5-3-5-0-0-5-----------------------|
B |-------------------------------------------0-0-5-----------------------|
                                              . .   
Slow down feeling at end of solo
c#|----------|
G#|----------|
E |----------|
B |----------|
F#|-7--3--2--|
B |-7--3--2--|

Solo //This part is tremelo picking, pretty fast. Updated 7/20/08
c#||-----------------------------------------------------------------|
G#||O----------------------------------------------------------------|
E ||-----------------------------------------------------------------|
B ||--10/12-12-12-12-0-10/12-12-12-12-0-10/12-12-12-12-0-10/12-12-12-|
F#||O----------------------------------------------------------------|
B ||-----------------------------------------------------------------|

   Ending 1
   -------------------||
   ------------------O||
   -------------------||
   --12p10p0--7p5p0---||
   ------------------O||
   -------------------||
   Ending 2
   ------------------|
   ------------------|
   --12p10p0--7p5p0--|
   ------------------|
   ------------------|
   ------------------|

c#|-------12-12p10-10-10h12--10h12p10---10h12p10------|
G#|-12b------------------------------10----------10---|
E |---------------------------------------------------|
B |---------------------------------------------------|
F#|---------------------------------------------------|
B |---------------------------------------------------|

c#|-/12-/13-/15-/17-/19-21b---|
G#|---------------------------|
E |---------------------------|
B |---------------------------|
F#|---------------------------|
B |---------------------------|


Creepy Slow Part with creepy lullaby
c#|-------------|
G#|-------------|
E |-------------|
B |-------------|
F#|--5~---------|
B |--5~---------|

c#||---------------------------------------------------------------------------------||
G#||O-------------------------------------------------------------------------------O||
E ||---------------------------------------------------------------------------------||
B ||---------------------------------------------------------------------------------||
F#||O-/\/5--7-8-7-10--8-7-8-7--3--5--7--8--7--5--7-8-7-10--8-7-8-7--3--1--1--0-1-0--O||
B ||--/\/5--7-8-7-10--8-7-8-7--3--5--7--8--7--5--7-8-7-10--8-7-8-7--3--1--1--0-1-0---||

c#|-------------------------------------------------------------|
G#|-------------------------------------------------------------|
E |-------------------------------------------------------------|
B |-------------------------------------------------------------|
F#|-0-2-0---3---0-2-0-0-3--0-2-0--3--0-2-0--3---0-2-0--3--------|
B |-0-2-0---3---0-2-0-0-3--0-2-0--3--0-2-0--3---0-2-0--3--------|
    . . .       . . . .    . . .     . . .      . . .
Outro
c#|---------------------------|
G#|---------------------------|
E |---------------------------|
B |---------------------------|
F#|-----------3-----------5---|
B |-0-2h3p2p0----2h3p2p0--5---|

| /  slide up
| \  slide down
| h  hammer-on
| p  pull-off
| ~  vibrato
| +  harmonic
| x  Mute note
===============================================================================





Comments


Popular H.I.M tabs & chords
Buried Alive By Love 2 Bass Tabs
The Sacrament 2 Bass Tabs
Heartkiller 2 Chords
Join Me Chords
Katherine Wheel Chords
Salt In Our Wounds 3 Chords
Under The Rose Chords
Dark Secret Love Tabs
Dead Lovers Lane 3 Tabs
Vampire Heart 2 Ukulele


Song lyrics



↑ Back to top | Tablatures and chords are parodies/interpretations of the original songs. You may use it for private study, scholarship, research or language learning purposes only
© 2014 AZChords.com Contact us | Privacy policy | DMCA | Add/correct tabs | Request tabs | Top 50 tabs