» » »

Private Hell Tabs (ver.1)

Artists:  A B C D E F G H I J K L M N O P Q R S T U V W X Y Z # 

Private Hell Tabs (ver.1)

Iggy Pop
Rating:
5/5 (3 votes)

Tabs too difficult? Try these video lessons and learn fast.
                ----------------------------------------------------------------------------
----------------------------------------------------------------------------

.....such an easy song

Tuning: Standard

Intro/Verse
0 secs - '39 secs
e|--------------------------------------|
B|--------------------------------------|
G|--------7-7---------------------------|
D|---4-4--7-7--7-7--9999----------------|
A|---4-4--5-5--7-7--9999----------------|
E|---2-2-------5-5--7777----------------|
"I have a private hell of excellent quality..."

Chorus
'40 secs - '50 secs
e|---------------------------------------|
B|---------------------------------------|
G|-----------777777----------------------|
D|---444444--777777--777777--999999------|
A|---444444--555555--777777--999999------|
E|---222222----------555555--777777------|
"Well all in all, I must tell you..."

e|---------------------------------------|
B|---------------------------------------|
G|-----------777777----------6-----------|
D|---444444--777777--666666--6-----------|
A|---444444--555555--666666--4-----------|
E|---222222----------444444--------------|


THEN REPEAT THE VERSE

It's much the same throughout, just listen to the song to know when to play each part.
            
Tabs too difficult? Try these video lessons and learn fast.




comments powered by Disqus
↑ Back to top | Tablatures and chords are parodies/interpretations of the original songs. You may use it for private study, scholarship, research or language learning purposes only